  0
SECTION
  2
ENTITIES
  0
POLYLINE
  8
EGA-729.PLT
 62
7
 66
1
  0
VERTEX
  8
EGA-729.PLT
 62
7
 10
12.00000000
 20
0.00000000
  0
VERTEX
  8
EGA-729.PLT
 62
7
 10
0.00000000
 20
0.00000000
  0
VERTEX
  8
EGA-729.PLT
 62
7
 10
0.00000000
 20
26.50000000
  0
VERTEX
  8
EGA-729.PLT
 62
7
 10
0.37837793
 20
26.50304077
  0
VERTEX
  8
EGA-729.PLT
 62
7
 10
0.75738281
 20
26.51213867
  0
VERTEX
  8
EGA-729.PLT
 62
7
 10
1.13682129
 20
26.52725708
  0
VERTEX
  8
EGA-729.PLT
 62
7
 10
1.51650000
 20
26.54835938
  0
VERTEX
  8
EGA-729.PLT
 62
7
 10
1.89622559
 20
26.57540894
  0
VERTEX
  8
EGA-729.PLT
 62
7
 10
2.27580469
 20
26.60836914
  0
VERTEX
  8
EGA-729.PLT
 62
7
 10
2.65504395
 20
26.64720337
  0
VERTEX
  8
EGA-729.PLT
 62
7
 10
3.03375000
 20
26.69187500
  0
VERTEX
  8
EGA-729.PLT
 62
7
 10
3.41172949
 20
26.74234741
  0
VERTEX
  8
EGA-729.PLT
 62
7
 10
3.78878906
 20
26.79858398
  0
VERTEX
  8
EGA-729.PLT
 62
7
 10
4.16473535
 20
26.86054810
  0
VERTEX
  8
EGA-729.PLT
 62
7
 10
4.53937500
 20
26.92820313
  0
VERTEX
  8
EGA-729.PLT
 62
7
 10
4.91251465
 20
27.00151245
  0
VERTEX
  8
EGA-729.PLT
 62
7
 10
5.28396094
 20
27.08043945
  0
VERTEX
  8
EGA-729.PLT
 62
7
 10
5.65352051
 20
27.16494751
  0
VERTEX
  8
EGA-729.PLT
 62
7
 10
6.02100000
 20
27.25500000
  0
VERTEX
  8
EGA-729.PLT
 62
7
 10
6.38940308
 20
27.34526978
  0
VERTEX
  8
EGA-729.PLT
 62
7
 10
6.75881836
 20
27.42970508
  0
VERTEX
  8
EGA-729.PLT
 62
7
 10
7.12917993
 20
27.50830737
  0
VERTEX
  8
EGA-729.PLT
 62
7
 10
7.50042187
 20
27.58107813
  0
VERTEX
  8
EGA-729.PLT
 62
7
 10
7.87247827
 20
27.64801880
  0
VERTEX
  8
EGA-729.PLT
 62
7
 10
8.24528320
 20
27.70913086
  0
VERTEX
  8
EGA-729.PLT
 62
7
 10
8.61877075
 20
27.76441577
  0
VERTEX
  8
EGA-729.PLT
 62
7
 10
8.99287500
 20
27.81387500
  0
VERTEX
  8
EGA-729.PLT
 62
7
 10
9.36753003
 20
27.85751001
  0
VERTEX
  8
EGA-729.PLT
 62
7
 10
9.74266992
 20
27.89532227
  0
VERTEX
  8
EGA-729.PLT
 62
7
 10
10.11822876
 20
27.92731323
  0
VERTEX
  8
EGA-729.PLT
 62
7
 10
10.49414063
 20
27.95348437
  0
VERTEX
  8
EGA-729.PLT
 62
7
 10
10.87033960
 20
27.97383716
  0
VERTEX
  8
EGA-729.PLT
 62
7
 10
11.24675977
 20
27.98837305
  0
VERTEX
  8
EGA-729.PLT
 62
7
 10
11.62333521
 20
27.99709351
  0
VERTEX
  8
EGA-729.PLT
 62
7
 10
12.00000000
 20
28.00000000
  0
VERTEX
  8
EGA-729.PLT
 62
7
 10
12.37666479
 20
27.99709351
  0
VERTEX
  8
EGA-729.PLT
 62
7
 10
12.75324023
 20
27.98837305
  0
VERTEX
  8
EGA-729.PLT
 62
7
 10
13.12966040
 20
27.97383716
  0
VERTEX
  8
EGA-729.PLT
 62
7
 10
13.50585938
 20
27.95348437
  0
VERTEX
  8
EGA-729.PLT
 62
7
 10
13.88177124
 20
27.92731323
  0
VERTEX
  8
EGA-729.PLT
 62
7
 10
14.25733008
 20
27.89532227
  0
VERTEX
  8
EGA-729.PLT
 62
7
 10
14.63246997
 20
27.85751001
  0
VERTEX
  8
EGA-729.PLT
 62
7
 10
15.00712500
 20
27.81387500
  0
VERTEX
  8
EGA-729.PLT
 62
7
 10
15.38122925
 20
27.76441577
  0
VERTEX
  8
EGA-729.PLT
 62
7
 10
15.75471680
 20
27.70913086
  0
VERTEX
  8
EGA-729.PLT
 62
7
 10
16.12752173
 20
27.64801880
  0
VERTEX
  8
EGA-729.PLT
 62
7
 10
16.49957812
 20
27.58107813
  0
VERTEX
  8
EGA-729.PLT
 62
7
 10
16.87082007
 20
27.50830737
  0
VERTEX
  8
EGA-729.PLT
 62
7
 10
17.24118164
 20
27.42970508
  0
VERTEX
  8
EGA-729.PLT
 62
7
 10
17.61059692
 20
27.34526978
  0
VERTEX
  8
EGA-729.PLT
 62
7
 10
17.97900000
 20
27.25500000
  0
VERTEX
  8
EGA-729.PLT
 62
7
 10
18.34647949
 20
27.16494751
  0
VERTEX
  8
EGA-729.PLT
 62
7
 10
18.71603906
 20
27.08043945
  0
VERTEX
  8
EGA-729.PLT
 62
7
 10
19.08748535
 20
27.00151245
  0
VERTEX
  8
EGA-729.PLT
 62
7
 10
19.46062500
 20
26.92820313
  0
VERTEX
  8
EGA-729.PLT
 62
7
 10
19.83526465
 20
26.86054810
  0
VERTEX
  8
EGA-729.PLT
 62
7
 10
20.21121094
 20
26.79858398
  0
VERTEX
  8
EGA-729.PLT
 62
7
 10
20.58827051
 20
26.74234741
  0
VERTEX
  8
EGA-729.PLT
 62
7
 10
20.96625000
 20
26.69187500
  0
VERTEX
  8
EGA-729.PLT
 62
7
 10
21.34495605
 20
26.64720337
  0
VERTEX
  8
EGA-729.PLT
 62
7
 10
21.72419531
 20
26.60836914
  0
VERTEX
  8
EGA-729.PLT
 62
7
 10
22.10377441
 20
26.57540894
  0
VERTEX
  8
EGA-729.PLT
 62
7
 10
22.48350000
 20
26.54835938
  0
VERTEX
  8
EGA-729.PLT
 62
7
 10
22.86317871
 20
26.52725708
  0
VERTEX
  8
EGA-729.PLT
 62
7
 10
23.24261719
 20
26.51213867
  0
VERTEX
  8
EGA-729.PLT
 62
7
 10
23.62162207
 20
26.50304077
  0
VERTEX
  8
EGA-729.PLT
 62
7
 10
24.00000000
 20
26.50000000
  0
VERTEX
  8
EGA-729.PLT
 62
7
 10
24.00000000
 20
0.00000000
  0
VERTEX
  8
EGA-729.PLT
 62
7
 10
12.00000000
 20
0.00000000
  0
SEQEND
  0
POLYLINE
  8
EGA-729.PLT
 62
7
 66
1
 70
1
  0
VERTEX
  8
EGA-729.PLT
 62
7
 10
12.00000000
 20
4.88200000
  0
VERTEX
  8
EGA-729.PLT
 62
7
 10
12.02173633
 20
4.84903906
  0
VERTEX
  8
EGA-729.PLT
 62
7
 10
12.04695313
 20
4.81931250
  0
VERTEX
  8
EGA-729.PLT
 62
7
 10
12.07528711
 20
4.79305469
  0
VERTEX
  8
EGA-729.PLT
 62
7
 10
12.10637500
 20
4.77050000
  0
VERTEX
  8
EGA-729.PLT
 62
7
 10
12.13985352
 20
4.75188281
  0
VERTEX
  8
EGA-729.PLT
 62
7
 10
12.17535937
 20
4.73743750
  0
VERTEX
  8
EGA-729.PLT
 62
7
 10
12.21252930
 20
4.72739844
  0
VERTEX
  8
EGA-729.PLT
 62
7
 10
12.25100000
 20
4.72200000
  0
VERTEX
  8
EGA-729.PLT
 62
7
 10
12.43900000
 20
4.74250000
  0
VERTEX
  8
EGA-729.PLT
 62
7
 10
12.62700000
 20
4.75700000
  0
VERTEX
  8
EGA-729.PLT
 62
7
 10
12.64624023
 20
4.75916602
  0
VERTEX
  8
EGA-729.PLT
 62
7
 10
12.66392188
 20
4.76532812
  0
VERTEX
  8
EGA-729.PLT
 62
7
 10
12.67961133
 20
4.77498242
  0
VERTEX
  8
EGA-729.PLT
 62
7
 10
12.69287500
 20
4.78762500
  0
VERTEX
  8
EGA-729.PLT
 62
7
 10
12.70327930
 20
4.80275195
  0
VERTEX
  8
EGA-729.PLT
 62
7
 10
12.71039063
 20
4.81985938
  0
VERTEX
  8
EGA-729.PLT
 62
7
 10
12.71377539
 20
4.83844336
  0
VERTEX
  8
EGA-729.PLT
 62
7
 10
12.71300000
 20
4.85800000
  0
VERTEX
  8
EGA-729.PLT
 62
7
 10
12.71217187
 20
4.88345313
  0
VERTEX
  8
EGA-729.PLT
 62
7
 10
12.71837500
 20
4.90787500
  0
VERTEX
  8
EGA-729.PLT
 62
7
 10
12.73114063
 20
4.92985938
  0
VERTEX
  8
EGA-729.PLT
 62
7
 10
12.75000000
 20
4.94800000
  0
VERTEX
  8
EGA-729.PLT
 62
7
 10
12.77245313
 20
4.95979688
  0
VERTEX
  8
EGA-729.PLT
 62
7
 10
12.79687500
 20
4.96512500
  0
VERTEX
  8
EGA-729.PLT
 62
7
 10
12.82185938
 20
4.96389063
  0
VERTEX
  8
EGA-729.PLT
 62
7
 10
12.84600000
 20
4.95600000
  0
VERTEX
  8
EGA-729.PLT
 62
7
 10
12.86234766
 20
4.95115039
  0
VERTEX
  8
EGA-729.PLT
 62
7
 10
12.87890625
 20
4.94926562
  0
VERTEX
  8
EGA-729.PLT
 62
7
 10
12.89532422
 20
4.95021680
  0
VERTEX
  8
EGA-729.PLT
 62
7
 10
12.91125000
 20
4.95387500
  0
VERTEX
  8
EGA-729.PLT
 62
7
 10
12.92633203
 20
4.96011133
  0
VERTEX
  8
EGA-729.PLT
 62
7
 10
12.94021875
 20
4.96879687
  0
VERTEX
  8
EGA-729.PLT
 62
7
 10
12.95255859
 20
4.97980273
  0
VERTEX
  8
EGA-729.PLT
 62
7
 10
12.96300000
 20
4.99300000
  0
VERTEX
  8
EGA-729.PLT
 62
7
 10
13.05382422
 20
4.98816797
  0
VERTEX
  8
EGA-729.PLT
 62
7
 10
13.14471875
 20
4.98640625
  0
VERTEX
  8
EGA-729.PLT
 62
7
 10
13.23556641
 20
4.98769141
  0
VERTEX
  8
EGA-729.PLT
 62
7
 10
13.32625000
 20
4.99200000
  0
VERTEX
  8
EGA-729.PLT
 62
7
 10
13.41665234
 20
4.99930859
  0
VERTEX
  8
EGA-729.PLT
 62
7
 10
13.50665625
 20
5.00959375
  0
VERTEX
  8
EGA-729.PLT
 62
7
 10
13.59614453
 20
5.02283203
  0
VERTEX
  8
EGA-729.PLT
 62
7
 10
13.68500000
 20
5.03900000
  0
VERTEX
  8
EGA-729.PLT
 62
7
 10
13.70813672
 20
4.99189380
  0
VERTEX
  8
EGA-729.PLT
 62
7
 10
13.73396875
 20
4.94663477
  0
VERTEX
  8
EGA-729.PLT
 62
7
 10
13.76237891
 20
4.90331226
  0
VERTEX
  8
EGA-729.PLT
 62
7
 10
13.79325000
 20
4.86201562
  0
VERTEX
  8
EGA-729.PLT
 62
7
 10
13.82646484
 20
4.82283423
  0
VERTEX
  8
EGA-729.PLT
 62
7
 10
13.86190625
 20
4.78585742
  0
VERTEX
  8
EGA-729.PLT
 62
7
 10
13.89945703
 20
4.75117456
  0
VERTEX
  8
EGA-729.PLT
 62
7
 10
13.93900000
 20
4.71887500
  0
VERTEX
  8
EGA-729.PLT
 62
7
 10
13.98041797
 20
4.68904810
  0
VERTEX
  8
EGA-729.PLT
 62
7
 10
14.02359375
 20
4.66178320
  0
VERTEX
  8
EGA-729.PLT
 62
7
 10
14.06841016
 20
4.63716968
  0
VERTEX
  8
EGA-729.PLT
 62
7
 10
14.11475000
 20
4.61529688
  0
VERTEX
  8
EGA-729.PLT
 62
7
 10
14.16249609
 20
4.59625415
  0
VERTEX
  8
EGA-729.PLT
 62
7
 10
14.21153125
 20
4.58013086
  0
VERTEX
  8
EGA-729.PLT
 62
7
 10
14.26173828
 20
4.56701636
  0
VERTEX
  8
EGA-729.PLT
 62
7
 10
14.31300000
 20
4.55700000
  0
VERTEX
  8
EGA-729.PLT
 62
7
 10
14.32703125
 20
4.58548438
  0
VERTEX
  8
EGA-729.PLT
 62
7
 10
14.33750000
 20
4.61537500
  0
VERTEX
  8
EGA-729.PLT
 62
7
 10
14.34421875
 20
4.64657812
  0
VERTEX
  8
EGA-729.PLT
 62
7
 10
14.34700000
 20
4.67900000
  0
VERTEX
  8
EGA-729.PLT
 62
7
 10
14.36660937
 20
4.67342187
  0
VERTEX
  8
EGA-729.PLT
 62
7
 10
14.38462500
 20
4.66437500
  0
VERTEX
  8
EGA-729.PLT
 62
7
 10
14.40057812
 20
4.65214063
  0
VERTEX
  8
EGA-729.PLT
 62
7
 10
14.41400000
 20
4.63700000
  0
VERTEX
  8
EGA-729.PLT
 62
7
 10
14.42543750
 20
4.61589062
  0
VERTEX
  8
EGA-729.PLT
 62
7
 10
14.43275000
 20
4.59337500
  0
VERTEX
  8
EGA-729.PLT
 62
7
 10
14.43593750
 20
4.56992188
  0
VERTEX
  8
EGA-729.PLT
 62
7
 10
14.43500000
 20
4.54600000
  0
VERTEX
  8
EGA-729.PLT
 62
7
 10
14.43137695
 20
4.52766602
  0
VERTEX
  8
EGA-729.PLT
 62
7
 10
14.42514062
 20
4.51032813
  0
VERTEX
  8
EGA-729.PLT
 62
7
 10
14.41649023
 20
4.49423242
  0
VERTEX
  8
EGA-729.PLT
 62
7
 10
14.40562500
 20
4.47962500
  0
VERTEX
  8
EGA-729.PLT
 62
7
 10
14.39274414
 20
4.46675195
  0
VERTEX
  8
EGA-729.PLT
 62
7
 10
14.37804688
 20
4.45585938
  0
VERTEX
  8
EGA-729.PLT
 62
7
 10
14.36173242
 20
4.44719336
  0
VERTEX
  8
EGA-729.PLT
 62
7
 10
14.34400000
 20
4.44100000
  0
VERTEX
  8
EGA-729.PLT
 62
7
 10
14.37522070
 20
4.42094336
  0
VERTEX
  8
EGA-729.PLT
 62
7
 10
14.40851563
 20
4.40579688
  0
VERTEX
  8
EGA-729.PLT
 62
7
 10
14.44333398
 20
4.39559570
  0
VERTEX
  8
EGA-729.PLT
 62
7
 10
14.47912500
 20
4.39037500
  0
VERTEX
  8
EGA-729.PLT
 62
7
 10
14.51533789
 20
4.39016992
  0
VERTEX
  8
EGA-729.PLT
 62
7
 10
14.55142188
 20
4.39501563
  0
VERTEX
  8
EGA-729.PLT
 62
7
 10
14.58682617
 20
4.40494727
  0
VERTEX
  8
EGA-729.PLT
 62
7
 10
14.62100000
 20
4.42000000
  0
VERTEX
  8
EGA-729.PLT
 62
7
 10
14.66854688
 20
4.44913086
  0
VERTEX
  8
EGA-729.PLT
 62
7
 10
14.71356250
 20
4.48167188
  0
VERTEX
  8
EGA-729.PLT
 62
7
 10
14.75585938
 20
4.51747070
  0
VERTEX
  8
EGA-729.PLT
 62
7
 10
14.79525000
 20
4.55637500
  0
VERTEX
  8
EGA-729.PLT
 62
7
 10
14.83154688
 20
4.59823242
  0
VERTEX
  8
EGA-729.PLT
 62
7
 10
14.86456250
 20
4.64289062
  0
VERTEX
  8
EGA-729.PLT
 62
7
 10
14.89410937
 20
4.69019727
  0
VERTEX
  8
EGA-729.PLT
 62
7
 10
14.92000000
 20
4.74000000
  0
VERTEX
  8
EGA-729.PLT
 62
7
 10
14.94607227
 20
4.80222070
  0
VERTEX
  8
EGA-729.PLT
 62
7
 10
14.96714063
 20
4.86632812
  0
VERTEX
  8
EGA-729.PLT
 62
7
 10
14.98298242
 20
4.93186523
  0
VERTEX
  8
EGA-729.PLT
 62
7
 10
14.99337500
 20
4.99837500
  0
VERTEX
  8
EGA-729.PLT
 62
7
 10
14.99809570
 20
5.06540039
  0
VERTEX
  8
EGA-729.PLT
 62
7
 10
14.99692188
 20
5.13248437
  0
VERTEX
  8
EGA-729.PLT
 62
7
 10
14.98963086
 20
5.19916992
  0
VERTEX
  8
EGA-729.PLT
 62
7
 10
14.97600000
 20
5.26500000
  0
VERTEX
  8
EGA-729.PLT
 62
7
 10
14.98859106
 20
5.22086108
  0
VERTEX
  8
EGA-729.PLT
 62
7
 10
15.00552539
 20
5.17931055
  0
VERTEX
  8
EGA-729.PLT
 62
7
 10
15.02648218
 20
5.14052271
  0
VERTEX
  8
EGA-729.PLT
 62
7
 10
15.05114063
 20
5.10467188
  0
VERTEX
  8
EGA-729.PLT
 62
7
 10
15.07917993
 20
5.07193237
  0
VERTEX
  8
EGA-729.PLT
 62
7
 10
15.11027930
 20
5.04247852
  0
VERTEX
  8
EGA-729.PLT
 62
7
 10
15.14411792
 20
5.01648462
  0
VERTEX
  8
EGA-729.PLT
 62
7
 10
15.18037500
 20
4.99412500
  0
VERTEX
  8
EGA-729.PLT
 62
7
 10
15.21872974
 20
4.97557397
  0
VERTEX
  8
EGA-729.PLT
 62
7
 10
15.25886133
 20
4.96100586
  0
VERTEX
  8
EGA-729.PLT
 62
7
 10
15.30044897
 20
4.95059497
  0
VERTEX
  8
EGA-729.PLT
 62
7
 10
15.34317187
 20
4.94451563
  0
VERTEX
  8
EGA-729.PLT
 62
7
 10
15.38670923
 20
4.94294214
  0
VERTEX
  8
EGA-729.PLT
 62
7
 10
15.43074023
 20
4.94604883
  0
VERTEX
  8
EGA-729.PLT
 62
7
 10
15.47494409
 20
4.95401001
  0
VERTEX
  8
EGA-729.PLT
 62
7
 10
15.51900000
 20
4.96700000
  0
VERTEX
  8
EGA-729.PLT
 62
7
 10
15.42400000
 20
5.11500000
  0
VERTEX
  8
EGA-729.PLT
 62
7
 10
15.41109961
 20
5.13143555
  0
VERTEX
  8
EGA-729.PLT
 62
7
 10
15.40235938
 20
5.14954688
  0
VERTEX
  8
EGA-729.PLT
 62
7
 10
15.39772070
 20
5.16866602
  0
VERTEX
  8
EGA-729.PLT
 62
7
 10
15.39712500
 20
5.18812500
  0
VERTEX
  8
EGA-729.PLT
 62
7
 10
15.40051367
 20
5.20725586
  0
VERTEX
  8
EGA-729.PLT
 62
7
 10
15.40782813
 20
5.22539063
  0
VERTEX
  8
EGA-729.PLT
 62
7
 10
15.41900977
 20
5.24186133
  0
VERTEX
  8
EGA-729.PLT
 62
7
 10
15.43400000
 20
5.25600000
  0
VERTEX
  8
EGA-729.PLT
 62
7
 10
15.45203320
 20
5.26689844
  0
VERTEX
  8
EGA-729.PLT
 62
7
 10
15.47120313
 20
5.27343750
  0
VERTEX
  8
EGA-729.PLT
 62
7
 10
15.49086523
 20
5.27575781
  0
VERTEX
  8
EGA-729.PLT
 62
7
 10
15.51037500
 20
5.27400000
  0
VERTEX
  8
EGA-729.PLT
 62
7
 10
15.52908789
 20
5.26830469
  0
VERTEX
  8
EGA-729.PLT
 62
7
 10
15.54635938
 20
5.25881250
  0
VERTEX
  8
EGA-729.PLT
 62
7
 10
15.56154492
 20
5.24566406
  0
VERTEX
  8
EGA-729.PLT
 62
7
 10
15.57400000
 20
5.22900000
  0
VERTEX
  8
EGA-729.PLT
 62
7
 10
15.61924878
 20
5.17557544
  0
VERTEX
  8
EGA-729.PLT
 62
7
 10
15.66749023
 20
5.12560352
  0
VERTEX
  8
EGA-729.PLT
 62
7
 10
15.71852954
 20
5.07916187
  0
VERTEX
  8
EGA-729.PLT
 62
7
 10
15.77217188
 20
5.03632812
  0
VERTEX
  8
EGA-729.PLT
 62
7
 10
15.82822241
 20
4.99717993
  0
VERTEX
  8
EGA-729.PLT
 62
7
 10
15.88648633
 20
4.96179492
  0
VERTEX
  8
EGA-729.PLT
 62
7
 10
15.94676880
 20
4.93025073
  0
VERTEX
  8
EGA-729.PLT
 62
7
 10
16.00887500
 20
4.90262500
  0
VERTEX
  8
EGA-729.PLT
 62
7
 10
16.07261011
 20
4.87899536
  0
VERTEX
  8
EGA-729.PLT
 62
7
 10
16.13777930
 20
4.85943945
  0
VERTEX
  8
EGA-729.PLT
 62
7
 10
16.20418774
 20
4.84403491
  0
VERTEX
  8
EGA-729.PLT
 62
7
 10
16.27164063
 20
4.83285938
  0
VERTEX
  8
EGA-729.PLT
 62
7
 10
16.33994312
 20
4.82599048
  0
VERTEX
  8
EGA-729.PLT
 62
7
 10
16.40890039
 20
4.82350586
  0
VERTEX
  8
EGA-729.PLT
 62
7
 10
16.47831763
 20
4.82548315
  0
VERTEX
  8
EGA-729.PLT
 62
7
 10
16.54800000
 20
4.83200000
  0
VERTEX
  8
EGA-729.PLT
 62
7
 10
16.61711206
 20
4.84321704
  0
VERTEX
  8
EGA-729.PLT
 62
7
 10
16.68483398
 20
4.85878320
  0
VERTEX
  8
EGA-729.PLT
 62
7
 10
16.75099438
 20
4.87857104
  0
VERTEX
  8
EGA-729.PLT
 62
7
 10
16.81542187
 20
4.90245313
  0
VERTEX
  8
EGA-729.PLT
 62
7
 10
16.87794507
 20
4.93030200
  0
VERTEX
  8
EGA-729.PLT
 62
7
 10
16.93839258
 20
4.96199023
  0
VERTEX
  8
EGA-729.PLT
 62
7
 10
16.99659302
 20
4.99739038
  0
VERTEX
  8
EGA-729.PLT
 62
7
 10
17.05237500
 20
5.03637500
  0
VERTEX
  8
EGA-729.PLT
 62
7
 10
17.10556714
 20
5.07881665
  0
VERTEX
  8
EGA-729.PLT
 62
7
 10
17.15599805
 20
5.12458789
  0
VERTEX
  8
EGA-729.PLT
 62
7
 10
17.20349634
 20
5.17356128
  0
VERTEX
  8
EGA-729.PLT
 62
7
 10
17.24789063
 20
5.22560938
  0
VERTEX
  8
EGA-729.PLT
 62
7
 10
17.28900952
 20
5.28060474
  0
VERTEX
  8
EGA-729.PLT
 62
7
 10
17.32668164
 20
5.33841992
  0
VERTEX
  8
EGA-729.PLT
 62
7
 10
17.36073560
 20
5.39892749
  0
VERTEX
  8
EGA-729.PLT
 62
7
 10
17.39100000
 20
5.46200000
  0
VERTEX
  8
EGA-729.PLT
 62
7
 10
17.39100000
 20
5.46100000
  0
VERTEX
  8
EGA-729.PLT
 62
7
 10
17.41595117
 20
5.43041406
  0
VERTEX
  8
EGA-729.PLT
 62
7
 10
17.44342187
 20
5.40250000
  0
VERTEX
  8
EGA-729.PLT
 62
7
 10
17.47321289
 20
5.37739844
  0
VERTEX
  8
EGA-729.PLT
 62
7
 10
17.50512500
 20
5.35525000
  0
VERTEX
  8
EGA-729.PLT
 62
7
 10
17.53895898
 20
5.33619531
  0
VERTEX
  8
EGA-729.PLT
 62
7
 10
17.57451563
 20
5.32037500
  0
VERTEX
  8
EGA-729.PLT
 62
7
 10
17.61159570
 20
5.30792969
  0
VERTEX
  8
EGA-729.PLT
 62
7
 10
17.65000000
 20
5.29900000
  0
VERTEX
  8
EGA-729.PLT
 62
7
 10
17.70753711
 20
5.28223242
  0
VERTEX
  8
EGA-729.PLT
 62
7
 10
17.76210938
 20
5.25917187
  0
VERTEX
  8
EGA-729.PLT
 62
7
 10
17.81328320
 20
5.23018164
  0
VERTEX
  8
EGA-729.PLT
 62
7
 10
17.86062500
 20
5.19562500
  0
VERTEX
  8
EGA-729.PLT
 62
7
 10
17.90370117
 20
5.15586523
  0
VERTEX
  8
EGA-729.PLT
 62
7
 10
17.94207812
 20
5.11126562
  0
VERTEX
  8
EGA-729.PLT
 62
7
 10
17.97532227
 20
5.06218945
  0
VERTEX
  8
EGA-729.PLT
 62
7
 10
18.00300000
 20
5.00900000
  0
VERTEX
  8
EGA-729.PLT
 62
7
 10
18.02445898
 20
5.03465430
  0
VERTEX
  8
EGA-729.PLT
 62
7
 10
18.04304688
 20
5.06198437
  0
VERTEX
  8
EGA-729.PLT
 62
7
 10
18.05870508
 20
5.09079102
  0
VERTEX
  8
EGA-729.PLT
 62
7
 10
18.07137500
 20
5.12087500
  0
VERTEX
  8
EGA-729.PLT
 62
7
 10
18.08099805
 20
5.15203711
  0
VERTEX
  8
EGA-729.PLT
 62
7
 10
18.08751563
 20
5.18407813
  0
VERTEX
  8
EGA-729.PLT
 62
7
 10
18.09086914
 20
5.21679883
  0
VERTEX
  8
EGA-729.PLT
 62
7
 10
18.09100000
 20
5.25000000
  0
VERTEX
  8
EGA-729.PLT
 62
7
 10
18.09552148
 20
5.27588672
  0
VERTEX
  8
EGA-729.PLT
 62
7
 10
18.10298437
 20
5.30090625
  0
VERTEX
  8
EGA-729.PLT
 62
7
 10
18.11323633
 20
5.32484766
  0
VERTEX
  8
EGA-729.PLT
 62
7
 10
18.12612500
 20
5.34750000
  0
VERTEX
  8
EGA-729.PLT
 62
7
 10
18.14149805
 20
5.36865234
  0
VERTEX
  8
EGA-729.PLT
 62
7
 10
18.15920313
 20
5.38809375
  0
VERTEX
  8
EGA-729.PLT
 62
7
 10
18.17908789
 20
5.40561328
  0
VERTEX
  8
EGA-729.PLT
 62
7
 10
18.20100000
 20
5.42100000
  0
VERTEX
  8
EGA-729.PLT
 62
7
 10
18.23425391
 20
5.45126367
  0
VERTEX
  8
EGA-729.PLT
 62
7
 10
18.26340625
 20
5.48479687
  0
VERTEX
  8
EGA-729.PLT
 62
7
 10
18.28829297
 20
5.52121289
  0
VERTEX
  8
EGA-729.PLT
 62
7
 10
18.30875000
 20
5.56012500
  0
VERTEX
  8
EGA-729.PLT
 62
7
 10
18.32461328
 20
5.60114648
  0
VERTEX
  8
EGA-729.PLT
 62
7
 10
18.33571875
 20
5.64389063
  0
VERTEX
  8
EGA-729.PLT
 62
7
 10
18.34190234
 20
5.68797070
  0
VERTEX
  8
EGA-729.PLT
 62
7
 10
18.34300000
 20
5.73300000
  0
VERTEX
  8
EGA-729.PLT
 62
7
 10
18.44100000
 20
5.66100000
  0
VERTEX
  8
EGA-729.PLT
 62
7
 10
18.52188867
 20
5.62814648
  0
VERTEX
  8
EGA-729.PLT
 62
7
 10
18.60398438
 20
5.59860937
  0
VERTEX
  8
EGA-729.PLT
 62
7
 10
18.68718164
 20
5.57242383
  0
VERTEX
  8
EGA-729.PLT
 62
7
 10
18.77137500
 20
5.54962500
  0
VERTEX
  8
EGA-729.PLT
 62
7
 10
18.85645898
 20
5.53024805
  0
VERTEX
  8
EGA-729.PLT
 62
7
 10
18.94232813
 20
5.51432812
  0
VERTEX
  8
EGA-729.PLT
 62
7
 10
19.02887695
 20
5.50190039
  0
VERTEX
  8
EGA-729.PLT
 62
7
 10
19.11600000
 20
5.49300000
  0
VERTEX
  8
EGA-729.PLT
 62
7
 10
19.17016455
 20
5.48999731
  0
VERTEX
  8
EGA-729.PLT
 62
7
 10
19.22423828
 20
5.48922852
  0
VERTEX
  8
EGA-729.PLT
 62
7
 10
19.27815381
 20
5.49067749
  0
VERTEX
  8
EGA-729.PLT
 62
7
 10
19.33184375
 20
5.49432813
  0
VERTEX
  8
EGA-729.PLT
 62
7
 10
19.38524072
 20
5.50016431
  0
VERTEX
  8
EGA-729.PLT
 62
7
 10
19.43827734
 20
5.50816992
  0
VERTEX
  8
EGA-729.PLT
 62
7
 10
19.49088623
 20
5.51832886
  0
VERTEX
  8
EGA-729.PLT
 62
7
 10
19.54300000
 20
5.53062500
  0
VERTEX
  8
EGA-729.PLT
 62
7
 10
19.59455127
 20
5.54504224
  0
VERTEX
  8
EGA-729.PLT
 62
7
 10
19.64547266
 20
5.56156445
  0
VERTEX
  8
EGA-729.PLT
 62
7
 10
19.69569678
 20
5.58017554
  0
VERTEX
  8
EGA-729.PLT
 62
7
 10
19.74515625
 20
5.60085937
  0
VERTEX
  8
EGA-729.PLT
 62
7
 10
19.79378369
 20
5.62359985
  0
VERTEX
  8
EGA-729.PLT
 62
7
 10
19.84151172
 20
5.64838086
  0
VERTEX
  8
EGA-729.PLT
 62
7
 10
19.88827295
 20
5.67518628
  0
VERTEX
  8
EGA-729.PLT
 62
7
 10
19.93400000
 20
5.70400000
  0
VERTEX
  8
EGA-729.PLT
 62
7
 10
19.93600000
 20
5.70500000
  0
VERTEX
  8
EGA-729.PLT
 62
7
 10
20.00372070
 20
5.75050781
  0
VERTEX
  8
EGA-729.PLT
 62
7
 10
20.06957813
 20
5.79850000
  0
VERTEX
  8
EGA-729.PLT
 62
7
 10
20.13349023
 20
5.84892969
  0
VERTEX
  8
EGA-729.PLT
 62
7
 10
20.19537500
 20
5.90175000
  0
VERTEX
  8
EGA-729.PLT
 62
7
 10
20.25515039
 20
5.95691406
  0
VERTEX
  8
EGA-729.PLT
 62
7
 10
20.31273438
 20
6.01437500
  0
VERTEX
  8
EGA-729.PLT
 62
7
 10
20.36804492
 20
6.07408594
  0
VERTEX
  8
EGA-729.PLT
 62
7
 10
20.42100000
 20
6.13600000
  0
VERTEX
  8
EGA-729.PLT
 62
7
 10
20.43117188
 20
6.15706250
  0
VERTEX
  8
EGA-729.PLT
 62
7
 10
20.44612500
 20
6.17475000
  0
VERTEX
  8
EGA-729.PLT
 62
7
 10
20.46501562
 20
6.18831250
  0
VERTEX
  8
EGA-729.PLT
 62
7
 10
20.48700000
 20
6.19700000
  0
VERTEX
  8
EGA-729.PLT
 62
7
 10
20.51045313
 20
6.19989063
  0
VERTEX
  8
EGA-729.PLT
 62
7
 10
20.53362500
 20
6.19687500
  0
VERTEX
  8
EGA-729.PLT
 62
7
 10
20.55548437
 20
6.18842188
  0
VERTEX
  8
EGA-729.PLT
 62
7
 10
20.57500000
 20
6.17500000
  0
VERTEX
  8
EGA-729.PLT
 62
7
 10
20.59051562
 20
6.15678125
  0
VERTEX
  8
EGA-729.PLT
 62
7
 10
20.60087500
 20
6.13575000
  0
VERTEX
  8
EGA-729.PLT
 62
7
 10
20.60579687
 20
6.11284375
  0
VERTEX
  8
EGA-729.PLT
 62
7
 10
20.60500000
 20
6.08900000
  0
VERTEX
  8
EGA-729.PLT
 62
7
 10
20.59837500
 20
6.06664062
  0
VERTEX
  8
EGA-729.PLT
 62
7
 10
20.58650000
 20
6.04662500
  0
VERTEX
  8
EGA-729.PLT
 62
7
 10
20.57012500
 20
6.02979687
  0
VERTEX
  8
EGA-729.PLT
 62
7
 10
20.55000000
 20
6.01700000
  0
VERTEX
  8
EGA-729.PLT
 62
7
 10
20.40300000
 20
5.88500000
  0
VERTEX
  8
EGA-729.PLT
 62
7
 10
20.45263110
 20
5.86137207
  0
VERTEX
  8
EGA-729.PLT
 62
7
 10
20.50342383
 20
5.84292969
  0
VERTEX
  8
EGA-729.PLT
 62
7
 10
20.55503979
 20
5.82958496
  0
VERTEX
  8
EGA-729.PLT
 62
7
 10
20.60714063
 20
5.82125000
  0
VERTEX
  8
EGA-729.PLT
 62
7
 10
20.65938794
 20
5.81783691
  0
VERTEX
  8
EGA-729.PLT
 62
7
 10
20.71144336
 20
5.81925781
  0
VERTEX
  8
EGA-729.PLT
 62
7
 10
20.76296851
 20
5.82542480
  0
VERTEX
  8
EGA-729.PLT
 62
7
 10
20.81362500
 20
5.83625000
  0
VERTEX
  8
EGA-729.PLT
 62
7
 10
20.86307446
 20
5.85164551
  0
VERTEX
  8
EGA-729.PLT
 62
7
 10
20.91097852
 20
5.87152344
  0
VERTEX
  8
EGA-729.PLT
 62
7
 10
20.95699878
 20
5.89579590
  0
VERTEX
  8
EGA-729.PLT
 62
7
 10
21.00079687
 20
5.92437500
  0
VERTEX
  8
EGA-729.PLT
 62
7
 10
21.04203442
 20
5.95717285
  0
VERTEX
  8
EGA-729.PLT
 62
7
 10
21.08037305
 20
5.99410156
  0
VERTEX
  8
EGA-729.PLT
 62
7
 10
21.11547437
 20
6.03507324
  0
VERTEX
  8
EGA-729.PLT
 62
7
 10
21.14700000
 20
6.08000000
  0
VERTEX
  8
EGA-729.PLT
 62
7
 10
21.16642090
 20
6.11599292
  0
VERTEX
  8
EGA-729.PLT
 62
7
 10
21.18269531
 20
6.15297461
  0
VERTEX
  8
EGA-729.PLT
 62
7
 10
21.19584082
 20
6.19076196
  0
VERTEX
  8
EGA-729.PLT
 62
7
 10
21.20587500
 20
6.22917187
  0
VERTEX
  8
EGA-729.PLT
 62
7
 10
21.21281543
 20
6.26802124
  0
VERTEX
  8
EGA-729.PLT
 62
7
 10
21.21667969
 20
6.30712695
  0
VERTEX
  8
EGA-729.PLT
 62
7
 10
21.21748535
 20
6.34630591
  0
VERTEX
  8
EGA-729.PLT
 62
7
 10
21.21525000
 20
6.38537500
  0
VERTEX
  8
EGA-729.PLT
 62
7
 10
21.20999121
 20
6.42415112
  0
VERTEX
  8
EGA-729.PLT
 62
7
 10
21.20172656
 20
6.46245117
  0
VERTEX
  8
EGA-729.PLT
 62
7
 10
21.19047363
 20
6.50009204
  0
VERTEX
  8
EGA-729.PLT
 62
7
 10
21.17625000
 20
6.53689062
  0
VERTEX
  8
EGA-729.PLT
 62
7
 10
21.15907324
 20
6.57266382
  0
VERTEX
  8
EGA-729.PLT
 62
7
 10
21.13896094
 20
6.60722852
  0
VERTEX
  8
EGA-729.PLT
 62
7
 10
21.11593066
 20
6.64040161
  0
VERTEX
  8
EGA-729.PLT
 62
7
 10
21.09000000
 20
6.67200000
  0
VERTEX
  8
EGA-729.PLT
 62
7
 10
21.09000000
 20
22.98500000
  0
VERTEX
  8
EGA-729.PLT
 62
7
 10
21.01179077
 20
23.00040210
  0
VERTEX
  8
EGA-729.PLT
 62
7
 10
20.93635742
 20
23.02238867
  0
VERTEX
  8
EGA-729.PLT
 62
7
 10
20.86399146
 20
23.05063013
  0
VERTEX
  8
EGA-729.PLT
 62
7
 10
20.79498437
 20
23.08479687
  0
VERTEX
  8
EGA-729.PLT
 62
7
 10
20.72962769
 20
23.12455933
  0
VERTEX
  8
EGA-729.PLT
 62
7
 10
20.66821289
 20
23.16958789
  0
VERTEX
  8
EGA-729.PLT
 62
7
 10
20.61103149
 20
23.21955298
  0
VERTEX
  8
EGA-729.PLT
 62
7
 10
20.55837500
 20
23.27412500
  0
VERTEX
  8
EGA-729.PLT
 62
7
 10
20.51053491
 20
23.33297437
  0
VERTEX
  8
EGA-729.PLT
 62
7
 10
20.46780273
 20
23.39577148
  0
VERTEX
  8
EGA-729.PLT
 62
7
 10
20.43046997
 20
23.46218677
  0
VERTEX
  8
EGA-729.PLT
 62
7
 10
20.39882813
 20
23.53189062
  0
VERTEX
  8
EGA-729.PLT
 62
7
 10
20.37316870
 20
23.60455347
  0
VERTEX
  8
EGA-729.PLT
 62
7
 10
20.35378320
 20
23.67984570
  0
VERTEX
  8
EGA-729.PLT
 62
7
 10
20.34096313
 20
23.75743774
  0
VERTEX
  8
EGA-729.PLT
 62
7
 10
20.33500000
 20
23.83700000
  0
VERTEX
  8
EGA-729.PLT
 62
7
 10
19.95067578
 20
23.89185547
  0
VERTEX
  8
EGA-729.PLT
 62
7
 10
19.56478125
 20
23.95278125
  0
VERTEX
  8
EGA-729.PLT
 62
7
 10
19.17818359
 20
24.01956641
  0
VERTEX
  8
EGA-729.PLT
 62
7
 10
18.79175000
 20
24.09200000
  0
VERTEX
  8
EGA-729.PLT
 62
7
 10
18.40634766
 20
24.16987109
  0
VERTEX
  8
EGA-729.PLT
 62
7
 10
18.02284375
 20
24.25296875
  0
VERTEX
  8
EGA-729.PLT
 62
7
 10
17.64210547
 20
24.34108203
  0
VERTEX
  8
EGA-729.PLT
 62
7
 10
17.26500000
 20
24.43400000
  0
VERTEX
  8
EGA-729.PLT
 62
7
 10
16.94054077
 20
24.51338257
  0
VERTEX
  8
EGA-729.PLT
 62
7
 10
16.61520117
 20
24.58765430
  0
VERTEX
  8
EGA-729.PLT
 62
7
 10
16.28903833
 20
24.65681372
  0
VERTEX
  8
EGA-729.PLT
 62
7
 10
15.96210938
 20
24.72085938
  0
VERTEX
  8
EGA-729.PLT
 62
7
 10
15.63447144
 20
24.77978979
  0
VERTEX
  8
EGA-729.PLT
 62
7
 10
15.30618164
 20
24.83360352
  0
VERTEX
  8
EGA-729.PLT
 62
7
 10
14.97729712
 20
24.88229907
  0
VERTEX
  8
EGA-729.PLT
 62
7
 10
14.64787500
 20
24.92587500
  0
VERTEX
  8
EGA-729.PLT
 62
7
 10
14.31797241
 20
24.96432983
  0
VERTEX
  8
EGA-729.PLT
 62
7
 10
13.98764648
 20
24.99766211
  0
VERTEX
  8
EGA-729.PLT
 62
7
 10
13.65695435
 20
25.02587036
  0
VERTEX
  8
EGA-729.PLT
 62
7
 10
13.32595313
 20
25.04895313
  0
VERTEX
  8
EGA-729.PLT
 62
7
 10
12.99469995
 20
25.06690894
  0
VERTEX
  8
EGA-729.PLT
 62
7
 10
12.66325195
 20
25.07973633
  0
VERTEX
  8
EGA-729.PLT
 62
7
 10
12.33166626
 20
25.08743384
  0
VERTEX
  8
EGA-729.PLT
 62
7
 10
12.00000000
 20
25.09000000
  0
VERTEX
  8
EGA-729.PLT
 62
7
 10
11.66833374
 20
25.08743384
  0
VERTEX
  8
EGA-729.PLT
 62
7
 10
11.33674805
 20
25.07973633
  0
VERTEX
  8
EGA-729.PLT
 62
7
 10
11.00530005
 20
25.06690894
  0
VERTEX
  8
EGA-729.PLT
 62
7
 10
10.67404688
 20
25.04895313
  0
VERTEX
  8
EGA-729.PLT
 62
7
 10
10.34304565
 20
25.02587036
  0
VERTEX
  8
EGA-729.PLT
 62
7
 10
10.01235352
 20
24.99766211
  0
VERTEX
  8
EGA-729.PLT
 62
7
 10
9.68202759
 20
24.96432983
  0
VERTEX
  8
EGA-729.PLT
 62
7
 10
9.35212500
 20
24.92587500
  0
VERTEX
  8
EGA-729.PLT
 62
7
 10
9.02270288
 20
24.88229907
  0
VERTEX
  8
EGA-729.PLT
 62
7
 10
8.69381836
 20
24.83360352
  0
VERTEX
  8
EGA-729.PLT
 62
7
 10
8.36552856
 20
24.77978979
  0
VERTEX
  8
EGA-729.PLT
 62
7
 10
8.03789062
 20
24.72085938
  0
VERTEX
  8
EGA-729.PLT
 62
7
 10
7.71096167
 20
24.65681372
  0
VERTEX
  8
EGA-729.PLT
 62
7
 10
7.38479883
 20
24.58765430
  0
VERTEX
  8
EGA-729.PLT
 62
7
 10
7.05945923
 20
24.51338257
  0
VERTEX
  8
EGA-729.PLT
 62
7
 10
6.73500000
 20
24.43400000
  0
VERTEX
  8
EGA-729.PLT
 62
7
 10
6.35789453
 20
24.34108203
  0
VERTEX
  8
EGA-729.PLT
 62
7
 10
5.97715625
 20
24.25296875
  0
VERTEX
  8
EGA-729.PLT
 62
7
 10
5.59365234
 20
24.16987109
  0
VERTEX
  8
EGA-729.PLT
 62
7
 10
5.20825000
 20
24.09200000
  0
VERTEX
  8
EGA-729.PLT
 62
7
 10
4.82181641
 20
24.01956641
  0
VERTEX
  8
EGA-729.PLT
 62
7
 10
4.43521875
 20
23.95278125
  0
VERTEX
  8
EGA-729.PLT
 62
7
 10
4.04932422
 20
23.89185547
  0
VERTEX
  8
EGA-729.PLT
 62
7
 10
3.66500000
 20
23.83700000
  0
VERTEX
  8
EGA-729.PLT
 62
7
 10
3.65903687
 20
23.75743774
  0
VERTEX
  8
EGA-729.PLT
 62
7
 10
3.64621680
 20
23.67984570
  0
VERTEX
  8
EGA-729.PLT
 62
7
 10
3.62683130
 20
23.60455347
  0
VERTEX
  8
EGA-729.PLT
 62
7
 10
3.60117187
 20
23.53189062
  0
VERTEX
  8
EGA-729.PLT
 62
7
 10
3.56953003
 20
23.46218677
  0
VERTEX
  8
EGA-729.PLT
 62
7
 10
3.53219727
 20
23.39577148
  0
VERTEX
  8
EGA-729.PLT
 62
7
 10
3.48946509
 20
23.33297437
  0
VERTEX
  8
EGA-729.PLT
 62
7
 10
3.44162500
 20
23.27412500
  0
VERTEX
  8
EGA-729.PLT
 62
7
 10
3.38896851
 20
23.21955298
  0
VERTEX
  8
EGA-729.PLT
 62
7
 10
3.33178711
 20
23.16958789
  0
VERTEX
  8
EGA-729.PLT
 62
7
 10
3.27037231
 20
23.12455933
  0
VERTEX
  8
EGA-729.PLT
 62
7
 10
3.20501563
 20
23.08479687
  0
VERTEX
  8
EGA-729.PLT
 62
7
 10
3.13600854
 20
23.05063013
  0
VERTEX
  8
EGA-729.PLT
 62
7
 10
3.06364258
 20
23.02238867
  0
VERTEX
  8
EGA-729.PLT
 62
7
 10
2.98820923
 20
23.00040210
  0
VERTEX
  8
EGA-729.PLT
 62
7
 10
2.91000000
 20
22.98500000
  0
VERTEX
  8
EGA-729.PLT
 62
7
 10
2.91000000
 20
6.67200000
  0
VERTEX
  8
EGA-729.PLT
 62
7
 10
2.88406934
 20
6.64040161
  0
VERTEX
  8
EGA-729.PLT
 62
7
 10
2.86103906
 20
6.60722852
  0
VERTEX
  8
EGA-729.PLT
 62
7
 10
2.84092676
 20
6.57266382
  0
VERTEX
  8
EGA-729.PLT
 62
7
 10
2.82375000
 20
6.53689062
  0
VERTEX
  8
EGA-729.PLT
 62
7
 10
2.80952637
 20
6.50009204
  0
VERTEX
  8
EGA-729.PLT
 62
7
 10
2.79827344
 20
6.46245117
  0
VERTEX
  8
EGA-729.PLT
 62
7
 10
2.79000879
 20
6.42415112
  0
VERTEX
  8
EGA-729.PLT
 62
7
 10
2.78475000
 20
6.38537500
  0
VERTEX
  8
EGA-729.PLT
 62
7
 10
2.78251465
 20
6.34630591
  0
VERTEX
  8
EGA-729.PLT
 62
7
 10
2.78332031
 20
6.30712695
  0
VERTEX
  8
EGA-729.PLT
 62
7
 10
2.78718457
 20
6.26802124
  0
VERTEX
  8
EGA-729.PLT
 62
7
 10
2.79412500
 20
6.22917187
  0
VERTEX
  8
EGA-729.PLT
 62
7
 10
2.80415918
 20
6.19076196
  0
VERTEX
  8
EGA-729.PLT
 62
7
 10
2.81730469
 20
6.15297461
  0
VERTEX
  8
EGA-729.PLT
 62
7
 10
2.83357910
 20
6.11599292
  0
VERTEX
  8
EGA-729.PLT
 62
7
 10
2.85300000
 20
6.08000000
  0
VERTEX
  8
EGA-729.PLT
 62
7
 10
2.88452563
 20
6.03507324
  0
VERTEX
  8
EGA-729.PLT
 62
7
 10
2.91962695
 20
5.99410156
  0
VERTEX
  8
EGA-729.PLT
 62
7
 10
2.95796558
 20
5.95717285
  0
VERTEX
  8
EGA-729.PLT
 62
7
 10
2.99920313
 20
5.92437500
  0
VERTEX
  8
EGA-729.PLT
 62
7
 10
3.04300122
 20
5.89579590
  0
VERTEX
  8
EGA-729.PLT
 62
7
 10
3.08902148
 20
5.87152344
  0
VERTEX
  8
EGA-729.PLT
 62
7
 10
3.13692554
 20
5.85164551
  0
VERTEX
  8
EGA-729.PLT
 62
7
 10
3.18637500
 20
5.83625000
  0
VERTEX
  8
EGA-729.PLT
 62
7
 10
3.23703149
 20
5.82542480
  0
VERTEX
  8
EGA-729.PLT
 62
7
 10
3.28855664
 20
5.81925781
  0
VERTEX
  8
EGA-729.PLT
 62
7
 10
3.34061206
 20
5.81783691
  0
VERTEX
  8
EGA-729.PLT
 62
7
 10
3.39285938
 20
5.82125000
  0
VERTEX
  8
EGA-729.PLT
 62
7
 10
3.44496021
 20
5.82958496
  0
VERTEX
  8
EGA-729.PLT
 62
7
 10
3.49657617
 20
5.84292969
  0
VERTEX
  8
EGA-729.PLT
 62
7
 10
3.54736890
 20
5.86137207
  0
VERTEX
  8
EGA-729.PLT
 62
7
 10
3.59700000
 20
5.88500000
  0
VERTEX
  8
EGA-729.PLT
 62
7
 10
3.45000000
 20
6.01700000
  0
VERTEX
  8
EGA-729.PLT
 62
7
 10
3.42987500
 20
6.02979687
  0
VERTEX
  8
EGA-729.PLT
 62
7
 10
3.41350000
 20
6.04662500
  0
VERTEX
  8
EGA-729.PLT
 62
7
 10
3.40162500
 20
6.06664062
  0
VERTEX
  8
EGA-729.PLT
 62
7
 10
3.39500000
 20
6.08900000
  0
VERTEX
  8
EGA-729.PLT
 62
7
 10
3.39420313
 20
6.11284375
  0
VERTEX
  8
EGA-729.PLT
 62
7
 10
3.39912500
 20
6.13575000
  0
VERTEX
  8
EGA-729.PLT
 62
7
 10
3.40948437
 20
6.15678125
  0
VERTEX
  8
EGA-729.PLT
 62
7
 10
3.42500000
 20
6.17500000
  0
VERTEX
  8
EGA-729.PLT
 62
7
 10
3.44451563
 20
6.18842188
  0
VERTEX
  8
EGA-729.PLT
 62
7
 10
3.46637500
 20
6.19687500
  0
VERTEX
  8
EGA-729.PLT
 62
7
 10
3.48954687
 20
6.19989063
  0
VERTEX
  8
EGA-729.PLT
 62
7
 10
3.51300000
 20
6.19700000
  0
VERTEX
  8
EGA-729.PLT
 62
7
 10
3.53498438
 20
6.18831250
  0
VERTEX
  8
EGA-729.PLT
 62
7
 10
3.55387500
 20
6.17475000
  0
VERTEX
  8
EGA-729.PLT
 62
7
 10
3.56882813
 20
6.15706250
  0
VERTEX
  8
EGA-729.PLT
 62
7
 10
3.57900000
 20
6.13600000
  0
VERTEX
  8
EGA-729.PLT
 62
7
 10
3.63195508
 20
6.07408594
  0
VERTEX
  8
EGA-729.PLT
 62
7
 10
3.68726563
 20
6.01437500
  0
VERTEX
  8
EGA-729.PLT
 62
7
 10
3.74484961
 20
5.95691406
  0
VERTEX
  8
EGA-729.PLT
 62
7
 10
3.80462500
 20
5.90175000
  0
VERTEX
  8
EGA-729.PLT
 62
7
 10
3.86650977
 20
5.84892969
  0
VERTEX
  8
EGA-729.PLT
 62
7
 10
3.93042188
 20
5.79850000
  0
VERTEX
  8
EGA-729.PLT
 62
7
 10
3.99627930
 20
5.75050781
  0
VERTEX
  8
EGA-729.PLT
 62
7
 10
4.06400000
 20
5.70500000
  0
VERTEX
  8
EGA-729.PLT
 62
7
 10
4.06600000
 20
5.70400000
  0
VERTEX
  8
EGA-729.PLT
 62
7
 10
4.11172705
 20
5.67518628
  0
VERTEX
  8
EGA-729.PLT
 62
7
 10
4.15848828
 20
5.64838086
  0
VERTEX
  8
EGA-729.PLT
 62
7
 10
4.20621631
 20
5.62359985
  0
VERTEX
  8
EGA-729.PLT
 62
7
 10
4.25484375
 20
5.60085937
  0
VERTEX
  8
EGA-729.PLT
 62
7
 10
4.30430322
 20
5.58017554
  0
VERTEX
  8
EGA-729.PLT
 62
7
 10
4.35452734
 20
5.56156445
  0
VERTEX
  8
EGA-729.PLT
 62
7
 10
4.40544873
 20
5.54504224
  0
VERTEX
  8
EGA-729.PLT
 62
7
 10
4.45700000
 20
5.53062500
  0
VERTEX
  8
EGA-729.PLT
 62
7
 10
4.50911377
 20
5.51832886
  0
VERTEX
  8
EGA-729.PLT
 62
7
 10
4.56172266
 20
5.50816992
  0
VERTEX
  8
EGA-729.PLT
 62
7
 10
4.61475928
 20
5.50016431
  0
VERTEX
  8
EGA-729.PLT
 62
7
 10
4.66815625
 20
5.49432813
  0
VERTEX
  8
EGA-729.PLT
 62
7
 10
4.72184619
 20
5.49067749
  0
VERTEX
  8
EGA-729.PLT
 62
7
 10
4.77576172
 20
5.48922852
  0
VERTEX
  8
EGA-729.PLT
 62
7
 10
4.82983545
 20
5.48999731
  0
VERTEX
  8
EGA-729.PLT
 62
7
 10
4.88400000
 20
5.49300000
  0
VERTEX
  8
EGA-729.PLT
 62
7
 10
4.97112305
 20
5.50190039
  0
VERTEX
  8
EGA-729.PLT
 62
7
 10
5.05767187
 20
5.51432812
  0
VERTEX
  8
EGA-729.PLT
 62
7
 10
5.14354102
 20
5.53024805
  0
VERTEX
  8
EGA-729.PLT
 62
7
 10
5.22862500
 20
5.54962500
  0
VERTEX
  8
EGA-729.PLT
 62
7
 10
5.31281836
 20
5.57242383
  0
VERTEX
  8
EGA-729.PLT
 62
7
 10
5.39601563
 20
5.59860937
  0
VERTEX
  8
EGA-729.PLT
 62
7
 10
5.47811133
 20
5.62814648
  0
VERTEX
  8
EGA-729.PLT
 62
7
 10
5.55900000
 20
5.66100000
  0
VERTEX
  8
EGA-729.PLT
 62
7
 10
5.65700000
 20
5.73300000
  0
VERTEX
  8
EGA-729.PLT
 62
7
 10
5.65809766
 20
5.68797070
  0
VERTEX
  8
EGA-729.PLT
 62
7
 10
5.66428125
 20
5.64389063
  0
VERTEX
  8
EGA-729.PLT
 62
7
 10
5.67538672
 20
5.60114648
  0
VERTEX
  8
EGA-729.PLT
 62
7
 10
5.69125000
 20
5.56012500
  0
VERTEX
  8
EGA-729.PLT
 62
7
 10
5.71170703
 20
5.52121289
  0
VERTEX
  8
EGA-729.PLT
 62
7
 10
5.73659375
 20
5.48479687
  0
VERTEX
  8
EGA-729.PLT
 62
7
 10
5.76574609
 20
5.45126367
  0
VERTEX
  8
EGA-729.PLT
 62
7
 10
5.79900000
 20
5.42100000
  0
VERTEX
  8
EGA-729.PLT
 62
7
 10
5.82091211
 20
5.40561328
  0
VERTEX
  8
EGA-729.PLT
 62
7
 10
5.84079687
 20
5.38809375
  0
VERTEX
  8
EGA-729.PLT
 62
7
 10
5.85850195
 20
5.36865234
  0
VERTEX
  8
EGA-729.PLT
 62
7
 10
5.87387500
 20
5.34750000
  0
VERTEX
  8
EGA-729.PLT
 62
7
 10
5.88676367
 20
5.32484766
  0
VERTEX
  8
EGA-729.PLT
 62
7
 10
5.89701562
 20
5.30090625
  0
VERTEX
  8
EGA-729.PLT
 62
7
 10
5.90447852
 20
5.27588672
  0
VERTEX
  8
EGA-729.PLT
 62
7
 10
5.90900000
 20
5.25000000
  0
VERTEX
  8
EGA-729.PLT
 62
7
 10
5.90913086
 20
5.21679883
  0
VERTEX
  8
EGA-729.PLT
 62
7
 10
5.91248438
 20
5.18407813
  0
VERTEX
  8
EGA-729.PLT
 62
7
 10
5.91900195
 20
5.15203711
  0
VERTEX
  8
EGA-729.PLT
 62
7
 10
5.92862500
 20
5.12087500
  0
VERTEX
  8
EGA-729.PLT
 62
7
 10
5.94129492
 20
5.09079102
  0
VERTEX
  8
EGA-729.PLT
 62
7
 10
5.95695313
 20
5.06198437
  0
VERTEX
  8
EGA-729.PLT
 62
7
 10
5.97554102
 20
5.03465430
  0
VERTEX
  8
EGA-729.PLT
 62
7
 10
5.99700000
 20
5.00900000
  0
VERTEX
  8
EGA-729.PLT
 62
7
 10
6.02467773
 20
5.06218945
  0
VERTEX
  8
EGA-729.PLT
 62
7
 10
6.05792187
 20
5.11126562
  0
VERTEX
  8
EGA-729.PLT
 62
7
 10
6.09629883
 20
5.15586523
  0
VERTEX
  8
EGA-729.PLT
 62
7
 10
6.13937500
 20
5.19562500
  0
VERTEX
  8
EGA-729.PLT
 62
7
 10
6.18671680
 20
5.23018164
  0
VERTEX
  8
EGA-729.PLT
 62
7
 10
6.23789063
 20
5.25917187
  0
VERTEX
  8
EGA-729.PLT
 62
7
 10
6.29246289
 20
5.28223242
  0
VERTEX
  8
EGA-729.PLT
 62
7
 10
6.35000000
 20
5.29900000
  0
VERTEX
  8
EGA-729.PLT
 62
7
 10
6.38840430
 20
5.30792969
  0
VERTEX
  8
EGA-729.PLT
 62
7
 10
6.42548437
 20
5.32037500
  0
VERTEX
  8
EGA-729.PLT
 62
7
 10
6.46104102
 20
5.33619531
  0
VERTEX
  8
EGA-729.PLT
 62
7
 10
6.49487500
 20
5.35525000
  0
VERTEX
  8
EGA-729.PLT
 62
7
 10
6.52678711
 20
5.37739844
  0
VERTEX
  8
EGA-729.PLT
 62
7
 10
6.55657812
 20
5.40250000
  0
VERTEX
  8
EGA-729.PLT
 62
7
 10
6.58404883
 20
5.43041406
  0
VERTEX
  8
EGA-729.PLT
 62
7
 10
6.60900000
 20
5.46100000
  0
VERTEX
  8
EGA-729.PLT
 62
7
 10
6.60900000
 20
5.46200000
  0
VERTEX
  8
EGA-729.PLT
 62
7
 10
6.63926440
 20
5.39892749
  0
VERTEX
  8
EGA-729.PLT
 62
7
 10
6.67331836
 20
5.33841992
  0
VERTEX
  8
EGA-729.PLT
 62
7
 10
6.71099048
 20
5.28060474
  0
VERTEX
  8
EGA-729.PLT
 62
7
 10
6.75210937
 20
5.22560938
  0
VERTEX
  8
EGA-729.PLT
 62
7
 10
6.79650366
 20
5.17356128
  0
VERTEX
  8
EGA-729.PLT
 62
7
 10
6.84400195
 20
5.12458789
  0
VERTEX
  8
EGA-729.PLT
 62
7
 10
6.89443286
 20
5.07881665
  0
VERTEX
  8
EGA-729.PLT
 62
7
 10
6.94762500
 20
5.03637500
  0
VERTEX
  8
EGA-729.PLT
 62
7
 10
7.00340698
 20
4.99739038
  0
VERTEX
  8
EGA-729.PLT
 62
7
 10
7.06160742
 20
4.96199023
  0
VERTEX
  8
EGA-729.PLT
 62
7
 10
7.12205493
 20
4.93030200
  0
VERTEX
  8
EGA-729.PLT
 62
7
 10
7.18457812
 20
4.90245313
  0
VERTEX
  8
EGA-729.PLT
 62
7
 10
7.24900562
 20
4.87857104
  0
VERTEX
  8
EGA-729.PLT
 62
7
 10
7.31516602
 20
4.85878320
  0
VERTEX
  8
EGA-729.PLT
 62
7
 10
7.38288794
 20
4.84321704
  0
VERTEX
  8
EGA-729.PLT
 62
7
 10
7.45200000
 20
4.83200000
  0
VERTEX
  8
EGA-729.PLT
 62
7
 10
7.52168237
 20
4.82548315
  0
VERTEX
  8
EGA-729.PLT
 62
7
 10
7.59109961
 20
4.82350586
  0
VERTEX
  8
EGA-729.PLT
 62
7
 10
7.66005688
 20
4.82599048
  0
VERTEX
  8
EGA-729.PLT
 62
7
 10
7.72835938
 20
4.83285938
  0
VERTEX
  8
EGA-729.PLT
 62
7
 10
7.79581226
 20
4.84403491
  0
VERTEX
  8
EGA-729.PLT
 62
7
 10
7.86222070
 20
4.85943945
  0
VERTEX
  8
EGA-729.PLT
 62
7
 10
7.92738989
 20
4.87899536
  0
VERTEX
  8
EGA-729.PLT
 62
7
 10
7.99112500
 20
4.90262500
  0
VERTEX
  8
EGA-729.PLT
 62
7
 10
8.05323120
 20
4.93025073
  0
VERTEX
  8
EGA-729.PLT
 62
7
 10
8.11351367
 20
4.96179492
  0
VERTEX
  8
EGA-729.PLT
 62
7
 10
8.17177759
 20
4.99717993
  0
VERTEX
  8
EGA-729.PLT
 62
7
 10
8.22782813
 20
5.03632812
  0
VERTEX
  8
EGA-729.PLT
 62
7
 10
8.28147046
 20
5.07916187
  0
VERTEX
  8
EGA-729.PLT
 62
7
 10
8.33250977
 20
5.12560352
  0
VERTEX
  8
EGA-729.PLT
 62
7
 10
8.38075122
 20
5.17557544
  0
VERTEX
  8
EGA-729.PLT
 62
7
 10
8.42600000
 20
5.22900000
  0
VERTEX
  8
EGA-729.PLT
 62
7
 10
8.43845508
 20
5.24566406
  0
VERTEX
  8
EGA-729.PLT
 62
7
 10
8.45364063
 20
5.25881250
  0
VERTEX
  8
EGA-729.PLT
 62
7
 10
8.47091211
 20
5.26830469
  0
VERTEX
  8
EGA-729.PLT
 62
7
 10
8.48962500
 20
5.27400000
  0
VERTEX
  8
EGA-729.PLT
 62
7
 10
8.50913477
 20
5.27575781
  0
VERTEX
  8
EGA-729.PLT
 62
7
 10
8.52879687
 20
5.27343750
  0
VERTEX
  8
EGA-729.PLT
 62
7
 10
8.54796680
 20
5.26689844
  0
VERTEX
  8
EGA-729.PLT
 62
7
 10
8.56600000
 20
5.25600000
  0
VERTEX
  8
EGA-729.PLT
 62
7
 10
8.58099023
 20
5.24186133
  0
VERTEX
  8
EGA-729.PLT
 62
7
 10
8.59217188
 20
5.22539063
  0
VERTEX
  8
EGA-729.PLT
 62
7
 10
8.59948633
 20
5.20725586
  0
VERTEX
  8
EGA-729.PLT
 62
7
 10
8.60287500
 20
5.18812500
  0
VERTEX
  8
EGA-729.PLT
 62
7
 10
8.60227930
 20
5.16866602
  0
VERTEX
  8
EGA-729.PLT
 62
7
 10
8.59764063
 20
5.14954688
  0
VERTEX
  8
EGA-729.PLT
 62
7
 10
8.58890039
 20
5.13143555
  0
VERTEX
  8
EGA-729.PLT
 62
7
 10
8.57600000
 20
5.11500000
  0
VERTEX
  8
EGA-729.PLT
 62
7
 10
8.48100000
 20
4.96700000
  0
VERTEX
  8
EGA-729.PLT
 62
7
 10
8.52505591
 20
4.95401001
  0
VERTEX
  8
EGA-729.PLT
 62
7
 10
8.56925977
 20
4.94604883
  0
VERTEX
  8
EGA-729.PLT
 62
7
 10
8.61329077
 20
4.94294214
  0
VERTEX
  8
EGA-729.PLT
 62
7
 10
8.65682813
 20
4.94451563
  0
VERTEX
  8
EGA-729.PLT
 62
7
 10
8.69955103
 20
4.95059497
  0
VERTEX
  8
EGA-729.PLT
 62
7
 10
8.74113867
 20
4.96100586
  0
VERTEX
  8
EGA-729.PLT
 62
7
 10
8.78127026
 20
4.97557397
  0
VERTEX
  8
EGA-729.PLT
 62
7
 10
8.81962500
 20
4.99412500
  0
VERTEX
  8
EGA-729.PLT
 62
7
 10
8.85588208
 20
5.01648462
  0
VERTEX
  8
EGA-729.PLT
 62
7
 10
8.88972070
 20
5.04247852
  0
VERTEX
  8
EGA-729.PLT
 62
7
 10
8.92082007
 20
5.07193237
  0
VERTEX
  8
EGA-729.PLT
 62
7
 10
8.94885937
 20
5.10467188
  0
VERTEX
  8
EGA-729.PLT
 62
7
 10
8.97351782
 20
5.14052271
  0
VERTEX
  8
EGA-729.PLT
 62
7
 10
8.99447461
 20
5.17931055
  0
VERTEX
  8
EGA-729.PLT
 62
7
 10
9.01140894
 20
5.22086108
  0
VERTEX
  8
EGA-729.PLT
 62
7
 10
9.02400000
 20
5.26500000
  0
VERTEX
  8
EGA-729.PLT
 62
7
 10
9.01036914
 20
5.19916992
  0
VERTEX
  8
EGA-729.PLT
 62
7
 10
9.00307813
 20
5.13248437
  0
VERTEX
  8
EGA-729.PLT
 62
7
 10
9.00190430
 20
5.06540039
  0
VERTEX
  8
EGA-729.PLT
 62
7
 10
9.00662500
 20
4.99837500
  0
VERTEX
  8
EGA-729.PLT
 62
7
 10
9.01701758
 20
4.93186523
  0
VERTEX
  8
EGA-729.PLT
 62
7
 10
9.03285937
 20
4.86632812
  0
VERTEX
  8
EGA-729.PLT
 62
7
 10
9.05392773
 20
4.80222070
  0
VERTEX
  8
EGA-729.PLT
 62
7
 10
9.08000000
 20
4.74000000
  0
VERTEX
  8
EGA-729.PLT
 62
7
 10
9.10589063
 20
4.69019727
  0
VERTEX
  8
EGA-729.PLT
 62
7
 10
9.13543750
 20
4.64289062
  0
VERTEX
  8
EGA-729.PLT
 62
7
 10
9.16845312
 20
4.59823242
  0
VERTEX
  8
EGA-729.PLT
 62
7
 10
9.20475000
 20
4.55637500
  0
VERTEX
  8
EGA-729.PLT
 62
7
 10
9.24414063
 20
4.51747070
  0
VERTEX
  8
EGA-729.PLT
 62
7
 10
9.28643750
 20
4.48167188
  0
VERTEX
  8
EGA-729.PLT
 62
7
 10
9.33145312
 20
4.44913086
  0
VERTEX
  8
EGA-729.PLT
 62
7
 10
9.37900000
 20
4.42000000
  0
VERTEX
  8
EGA-729.PLT
 62
7
 10
9.41317383
 20
4.40494727
  0
VERTEX
  8
EGA-729.PLT
 62
7
 10
9.44857812
 20
4.39501563
  0
VERTEX
  8
EGA-729.PLT
 62
7
 10
9.48466211
 20
4.39016992
  0
VERTEX
  8
EGA-729.PLT
 62
7
 10
9.52087500
 20
4.39037500
  0
VERTEX
  8
EGA-729.PLT
 62
7
 10
9.55666602
 20
4.39559570
  0
VERTEX
  8
EGA-729.PLT
 62
7
 10
9.59148438
 20
4.40579688
  0
VERTEX
  8
EGA-729.PLT
 62
7
 10
9.62477930
 20
4.42094336
  0
VERTEX
  8
EGA-729.PLT
 62
7
 10
9.65600000
 20
4.44100000
  0
VERTEX
  8
EGA-729.PLT
 62
7
 10
9.63826758
 20
4.44719336
  0
VERTEX
  8
EGA-729.PLT
 62
7
 10
9.62195312
 20
4.45585938
  0
VERTEX
  8
EGA-729.PLT
 62
7
 10
9.60725586
 20
4.46675195
  0
VERTEX
  8
EGA-729.PLT
 62
7
 10
9.59437500
 20
4.47962500
  0
VERTEX
  8
EGA-729.PLT
 62
7
 10
9.58350977
 20
4.49423242
  0
VERTEX
  8
EGA-729.PLT
 62
7
 10
9.57485938
 20
4.51032813
  0
VERTEX
  8
EGA-729.PLT
 62
7
 10
9.56862305
 20
4.52766602
  0
VERTEX
  8
EGA-729.PLT
 62
7
 10
9.56500000
 20
4.54600000
  0
VERTEX
  8
EGA-729.PLT
 62
7
 10
9.56406250
 20
4.56992188
  0
VERTEX
  8
EGA-729.PLT
 62
7
 10
9.56725000
 20
4.59337500
  0
VERTEX
  8
EGA-729.PLT
 62
7
 10
9.57456250
 20
4.61589062
  0
VERTEX
  8
EGA-729.PLT
 62
7
 10
9.58600000
 20
4.63700000
  0
VERTEX
  8
EGA-729.PLT
 62
7
 10
9.59942188
 20
4.65214063
  0
VERTEX
  8
EGA-729.PLT
 62
7
 10
9.61537500
 20
4.66437500
  0
VERTEX
  8
EGA-729.PLT
 62
7
 10
9.63339063
 20
4.67342187
  0
VERTEX
  8
EGA-729.PLT
 62
7
 10
9.65300000
 20
4.67900000
  0
VERTEX
  8
EGA-729.PLT
 62
7
 10
9.65578125
 20
4.64657812
  0
VERTEX
  8
EGA-729.PLT
 62
7
 10
9.66250000
 20
4.61537500
  0
VERTEX
  8
EGA-729.PLT
 62
7
 10
9.67296875
 20
4.58548438
  0
VERTEX
  8
EGA-729.PLT
 62
7
 10
9.68700000
 20
4.55700000
  0
VERTEX
  8
EGA-729.PLT
 62
7
 10
9.73826172
 20
4.56701636
  0
VERTEX
  8
EGA-729.PLT
 62
7
 10
9.78846875
 20
4.58013086
  0
VERTEX
  8
EGA-729.PLT
 62
7
 10
9.83750391
 20
4.59625415
  0
VERTEX
  8
EGA-729.PLT
 62
7
 10
9.88525000
 20
4.61529688
  0
VERTEX
  8
EGA-729.PLT
 62
7
 10
9.93158984
 20
4.63716968
  0
VERTEX
  8
EGA-729.PLT
 62
7
 10
9.97640625
 20
4.66178320
  0
VERTEX
  8
EGA-729.PLT
 62
7
 10
10.01958203
 20
4.68904810
  0
VERTEX
  8
EGA-729.PLT
 62
7
 10
10.06100000
 20
4.71887500
  0
VERTEX
  8
EGA-729.PLT
 62
7
 10
10.10054297
 20
4.75117456
  0
VERTEX
  8
EGA-729.PLT
 62
7
 10
10.13809375
 20
4.78585742
  0
VERTEX
  8
EGA-729.PLT
 62
7
 10
10.17353516
 20
4.82283423
  0
VERTEX
  8
EGA-729.PLT
 62
7
 10
10.20675000
 20
4.86201562
  0
VERTEX
  8
EGA-729.PLT
 62
7
 10
10.23762109
 20
4.90331226
  0
VERTEX
  8
EGA-729.PLT
 62
7
 10
10.26603125
 20
4.94663477
  0
VERTEX
  8
EGA-729.PLT
 62
7
 10
10.29186328
 20
4.99189380
  0
VERTEX
  8
EGA-729.PLT
 62
7
 10
10.31500000
 20
5.03900000
  0
VERTEX
  8
EGA-729.PLT
 62
7
 10
10.40385547
 20
5.02283203
  0
VERTEX
  8
EGA-729.PLT
 62
7
 10
10.49334375
 20
5.00959375
  0
VERTEX
  8
EGA-729.PLT
 62
7
 10
10.58334766
 20
4.99930859
  0
VERTEX
  8
EGA-729.PLT
 62
7
 10
10.67375000
 20
4.99200000
  0
VERTEX
  8
EGA-729.PLT
 62
7
 10
10.76443359
 20
4.98769141
  0
VERTEX
  8
EGA-729.PLT
 62
7
 10
10.85528125
 20
4.98640625
  0
VERTEX
  8
EGA-729.PLT
 62
7
 10
10.94617578
 20
4.98816797
  0
VERTEX
  8
EGA-729.PLT
 62
7
 10
11.03700000
 20
4.99300000
  0
VERTEX
  8
EGA-729.PLT
 62
7
 10
11.04744141
 20
4.97980273
  0
VERTEX
  8
EGA-729.PLT
 62
7
 10
11.05978125
 20
4.96879687
  0
VERTEX
  8
EGA-729.PLT
 62
7
 10
11.07366797
 20
4.96011133
  0
VERTEX
  8
EGA-729.PLT
 62
7
 10
11.08875000
 20
4.95387500
  0
VERTEX
  8
EGA-729.PLT
 62
7
 10
11.10467578
 20
4.95021680
  0
VERTEX
  8
EGA-729.PLT
 62
7
 10
11.12109375
 20
4.94926562
  0
VERTEX
  8
EGA-729.PLT
 62
7
 10
11.13765234
 20
4.95115039
  0
VERTEX
  8
EGA-729.PLT
 62
7
 10
11.15400000
 20
4.95600000
  0
VERTEX
  8
EGA-729.PLT
 62
7
 10
11.17814062
 20
4.96389063
  0
VERTEX
  8
EGA-729.PLT
 62
7
 10
11.20312500
 20
4.96512500
  0
VERTEX
  8
EGA-729.PLT
 62
7
 10
11.22754688
 20
4.95979688
  0
VERTEX
  8
EGA-729.PLT
 62
7
 10
11.25000000
 20
4.94800000
  0
VERTEX
  8
EGA-729.PLT
 62
7
 10
11.26885938
 20
4.92985938
  0
VERTEX
  8
EGA-729.PLT
 62
7
 10
11.28162500
 20
4.90787500
  0
VERTEX
  8
EGA-729.PLT
 62
7
 10
11.28782813
 20
4.88345313
  0
VERTEX
  8
EGA-729.PLT
 62
7
 10
11.28700000
 20
4.85800000
  0
VERTEX
  8
EGA-729.PLT
 62
7
 10
11.28622461
 20
4.83844336
  0
VERTEX
  8
EGA-729.PLT
 62
7
 10
11.28960938
 20
4.81985938
  0
VERTEX
  8
EGA-729.PLT
 62
7
 10
11.29672070
 20
4.80275195
  0
VERTEX
  8
EGA-729.PLT
 62
7
 10
11.30712500
 20
4.78762500
  0
VERTEX
  8
EGA-729.PLT
 62
7
 10
11.32038867
 20
4.77498242
  0
VERTEX
  8
EGA-729.PLT
 62
7
 10
11.33607813
 20
4.76532812
  0
VERTEX
  8
EGA-729.PLT
 62
7
 10
11.35375977
 20
4.75916602
  0
VERTEX
  8
EGA-729.PLT
 62
7
 10
11.37300000
 20
4.75700000
  0
VERTEX
  8
EGA-729.PLT
 62
7
 10
11.56100000
 20
4.74250000
  0
VERTEX
  8
EGA-729.PLT
 62
7
 10
11.74900000
 20
4.72200000
  0
VERTEX
  8
EGA-729.PLT
 62
7
 10
11.78747070
 20
4.72739844
  0
VERTEX
  8
EGA-729.PLT
 62
7
 10
11.82464063
 20
4.73743750
  0
VERTEX
  8
EGA-729.PLT
 62
7
 10
11.86014648
 20
4.75188281
  0
VERTEX
  8
EGA-729.PLT
 62
7
 10
11.89362500
 20
4.77050000
  0
VERTEX
  8
EGA-729.PLT
 62
7
 10
11.92471289
 20
4.79305469
  0
VERTEX
  8
EGA-729.PLT
 62
7
 10
11.95304688
 20
4.81931250
  0
VERTEX
  8
EGA-729.PLT
 62
7
 10
11.97826367
 20
4.84903906
  0
SEQEND
  0
POLYLINE
  8
EGA-729.PLT
 62
7
 66
1
 70
1
  0
VERTEX
  8
EGA-729.PLT
 62
7
 10
12.00000000
 20
24.75000000
  0
VERTEX
  8
EGA-729.PLT
 62
7
 10
11.67358350
 20
24.74748047
  0
VERTEX
  8
EGA-729.PLT
 62
7
 10
11.34724609
 20
24.73992188
  0
VERTEX
  8
EGA-729.PLT
 62
7
 10
11.02104346
 20
24.72732422
  0
VERTEX
  8
EGA-729.PLT
 62
7
 10
10.69503125
 20
24.70968750
  0
VERTEX
  8
EGA-729.PLT
 62
7
 10
10.36926514
 20
24.68701172
  0
VERTEX
  8
EGA-729.PLT
 62
7
 10
10.04380078
 20
24.65929687
  0
VERTEX
  8
EGA-729.PLT
 62
7
 10
9.71869385
 20
24.62654297
  0
VERTEX
  8
EGA-729.PLT
 62
7
 10
9.39400000
 20
24.58875000
  0
VERTEX
  8
EGA-729.PLT
 62
7
 10
9.06977490
 20
24.54591797
  0
VERTEX
  8
EGA-729.PLT
 62
7
 10
8.74607422
 20
24.49804688
  0
VERTEX
  8
EGA-729.PLT
 62
7
 10
8.42295361
 20
24.44513672
  0
VERTEX
  8
EGA-729.PLT
 62
7
 10
8.10046875
 20
24.38718750
  0
VERTEX
  8
EGA-729.PLT
 62
7
 10
7.77867529
 20
24.32419922
  0
VERTEX
  8
EGA-729.PLT
 62
7
 10
7.45762891
 20
24.25617188
  0
VERTEX
  8
EGA-729.PLT
 62
7
 10
7.13738525
 20
24.18310547
  0
VERTEX
  8
EGA-729.PLT
 62
7
 10
6.81800000
 20
24.10500000
  0
VERTEX
  8
EGA-729.PLT
 62
7
 10
6.46567383
 20
24.01808008
  0
VERTEX
  8
EGA-729.PLT
 62
7
 10
6.11101563
 20
23.93520313
  0
VERTEX
  8
EGA-729.PLT
 62
7
 10
5.75450586
 20
23.85656836
  0
VERTEX
  8
EGA-729.PLT
 62
7
 10
5.39662500
 20
23.78237500
  0
VERTEX
  8
EGA-729.PLT
 62
7
 10
5.03785352
 20
23.71282227
  0
VERTEX
  8
EGA-729.PLT
 62
7
 10
4.67867188
 20
23.64810938
  0
VERTEX
  8
EGA-729.PLT
 62
7
 10
4.31956055
 20
23.58843555
  0
VERTEX
  8
EGA-729.PLT
 62
7
 10
3.96100000
 20
23.53400000
  0
VERTEX
  8
EGA-729.PLT
 62
7
 10
3.94001831
 20
23.46674316
  0
VERTEX
  8
EGA-729.PLT
 62
7
 10
3.91539648
 20
23.40117969
  0
VERTEX
  8
EGA-729.PLT
 62
7
 10
3.88724438
 20
23.33743262
  0
VERTEX
  8
EGA-729.PLT
 62
7
 10
3.85567188
 20
23.27562500
  0
VERTEX
  8
EGA-729.PLT
 62
7
 10
3.82078882
 20
23.21587988
  0
VERTEX
  8
EGA-729.PLT
 62
7
 10
3.78270508
 20
23.15832031
  0
VERTEX
  8
EGA-729.PLT
 62
7
 10
3.74153052
 20
23.10306934
  0
VERTEX
  8
EGA-729.PLT
 62
7
 10
3.69737500
 20
23.05025000
  0
VERTEX
  8
EGA-729.PLT
 62
7
 10
3.65034839
 20
22.99998535
  0
VERTEX
  8
EGA-729.PLT
 62
7
 10
3.60056055
 20
22.95239844
  0
VERTEX
  8
EGA-729.PLT
 62
7
 10
3.54812134
 20
22.90761230
  0
VERTEX
  8
EGA-729.PLT
 62
7
 10
3.49314063
 20
22.86575000
  0
VERTEX
  8
EGA-729.PLT
 62
7
 10
3.43572827
 20
22.82693457
  0
VERTEX
  8
EGA-729.PLT
 62
7
 10
3.37599414
 20
22.79128906
  0
VERTEX
  8
EGA-729.PLT
 62
7
 10
3.31404810
 20
22.75893652
  0
VERTEX
  8
EGA-729.PLT
 62
7
 10
3.25000000
 20
22.73000000
  0
VERTEX
  8
EGA-729.PLT
 62
7
 10
3.25000000
 20
6.84800000
  0
VERTEX
  8
EGA-729.PLT
 62
7
 10
3.18920313
 20
6.83884375
  0
VERTEX
  8
EGA-729.PLT
 62
7
 10
3.13037500
 20
6.82200000
  0
VERTEX
  8
EGA-729.PLT
 62
7
 10
3.07435937
 20
6.79765625
  0
VERTEX
  8
EGA-729.PLT
 62
7
 10
3.02200000
 20
6.76600000
  0
VERTEX
  8
EGA-729.PLT
 62
7
 10
3.00000000
 20
6.75200000
  0
VERTEX
  8
EGA-729.PLT
 62
7
 10
3.00000000
 20
22.91000000
  0
VERTEX
  8
EGA-729.PLT
 62
7
 10
3.07432983
 20
22.93064160
  0
VERTEX
  8
EGA-729.PLT
 62
7
 10
3.14604492
 20
22.95677344
  0
VERTEX
  8
EGA-729.PLT
 62
7
 10
3.21492114
 20
22.98814355
  0
VERTEX
  8
EGA-729.PLT
 62
7
 10
3.28073438
 20
23.02450000
  0
VERTEX
  8
EGA-729.PLT
 62
7
 10
3.34326050
 20
23.06559082
  0
VERTEX
  8
EGA-729.PLT
 62
7
 10
3.40227539
 20
23.11116406
  0
VERTEX
  8
EGA-729.PLT
 62
7
 10
3.45755493
 20
23.16096777
  0
VERTEX
  8
EGA-729.PLT
 62
7
 10
3.50887500
 20
23.21475000
  0
VERTEX
  8
EGA-729.PLT
 62
7
 10
3.55601147
 20
23.27225879
  0
VERTEX
  8
EGA-729.PLT
 62
7
 10
3.59874023
 20
23.33324219
  0
VERTEX
  8
EGA-729.PLT
 62
7
 10
3.63683716
 20
23.39744824
  0
VERTEX
  8
EGA-729.PLT
 62
7
 10
3.67007812
 20
23.46462500
  0
VERTEX
  8
EGA-729.PLT
 62
7
 10
3.69823901
 20
23.53452051
  0
VERTEX
  8
EGA-729.PLT
 62
7
 10
3.72109570
 20
23.60688281
  0
VERTEX
  8
EGA-729.PLT
 62
7
 10
3.73842407
 20
23.68145996
  0
VERTEX
  8
EGA-729.PLT
 62
7
 10
3.75000000
 20
23.75800000
  0
VERTEX
  8
EGA-729.PLT
 62
7
 10
4.12866406
 20
23.81296289
  0
VERTEX
  8
EGA-729.PLT
 62
7
 10
4.50700000
 20
23.87351563
  0
VERTEX
  8
EGA-729.PLT
 62
7
 10
4.88477344
 20
23.93952930
  0
VERTEX
  8
EGA-729.PLT
 62
7
 10
5.26175000
 20
24.01087500
  0
VERTEX
  8
EGA-729.PLT
 62
7
 10
5.63769531
 20
24.08742383
  0
VERTEX
  8
EGA-729.PLT
 62
7
 10
6.01237500
 20
24.16904687
  0
VERTEX
  8
EGA-729.PLT
 62
7
 10
6.38555469
 20
24.25561523
  0
VERTEX
  8
EGA-729.PLT
 62
7
 10
6.75700000
 20
24.34700000
  0
VERTEX
  8
EGA-729.PLT
 62
7
 10
7.07998169
 20
24.42601929
  0
VERTEX
  8
EGA-729.PLT
 62
7
 10
7.40388477
 20
24.49995117
  0
VERTEX
  8
EGA-729.PLT
 62
7
 10
7.72864624
 20
24.56879419
  0
VERTEX
  8
EGA-729.PLT
 62
7
 10
8.05420313
 20
24.63254687
  0
VERTEX
  8
EGA-729.PLT
 62
7
 10
8.38049243
 20
24.69120776
  0
VERTEX
  8
EGA-729.PLT
 62
7
 10
8.70745117
 20
24.74477539
  0
VERTEX
  8
EGA-729.PLT
 62
7
 10
9.03501636
 20
24.79324829
  0
VERTEX
  8
EGA-729.PLT
 62
7
 10
9.36312500
 20
24.83662500
  0
VERTEX
  8
EGA-729.PLT
 62
7
 10
9.69171411
 20
24.87490405
  0
VERTEX
  8
EGA-729.PLT
 62
7
 10
10.02072070
 20
24.90808398
  0
VERTEX
  8
EGA-729.PLT
 62
7
 10
10.35008179
 20
24.93616333
  0
VERTEX
  8
EGA-729.PLT
 62
7
 10
10.67973438
 20
24.95914063
  0
VERTEX
  8
EGA-729.PLT
 62
7
 10
11.00961548
 20
24.97701440
  0
VERTEX
  8
EGA-729.PLT
 62
7
 10
11.33966211
 20
24.98978320
  0
VERTEX
  8
EGA-729.PLT
 62
7
 10
11.66981128
 20
24.99744556
  0
VERTEX
  8
EGA-729.PLT
 62
7
 10
12.00000000
 20
25.00000000
  0
VERTEX
  8
EGA-729.PLT
 62
7
 10
12.33018872
 20
24.99744556
  0
VERTEX
  8
EGA-729.PLT
 62
7
 10
12.66033789
 20
24.98978320
  0
VERTEX
  8
EGA-729.PLT
 62
7
 10
12.99038452
 20
24.97701440
  0
VERTEX
  8
EGA-729.PLT
 62
7
 10
13.32026562
 20
24.95914063
  0
VERTEX
  8
EGA-729.PLT
 62
7
 10
13.64991821
 20
24.93616333
  0
VERTEX
  8
EGA-729.PLT
 62
7
 10
13.97927930
 20
24.90808398
  0
VERTEX
  8
EGA-729.PLT
 62
7
 10
14.30828589
 20
24.87490405
  0
VERTEX
  8
EGA-729.PLT
 62
7
 10
14.63687500
 20
24.83662500
  0
VERTEX
  8
EGA-729.PLT
 62
7
 10
14.96498364
 20
24.79324829
  0
VERTEX
  8
EGA-729.PLT
 62
7
 10
15.29254883
 20
24.74477539
  0
VERTEX
  8
EGA-729.PLT
 62
7
 10
15.61950757
 20
24.69120776
  0
VERTEX
  8
EGA-729.PLT
 62
7
 10
15.94579687
 20
24.63254687
  0
VERTEX
  8
EGA-729.PLT
 62
7
 10
16.27135376
 20
24.56879419
  0
VERTEX
  8
EGA-729.PLT
 62
7
 10
16.59611523
 20
24.49995117
  0
VERTEX
  8
EGA-729.PLT
 62
7
 10
16.92001831
 20
24.42601929
  0
VERTEX
  8
EGA-729.PLT
 62
7
 10
17.24300000
 20
24.34700000
  0
VERTEX
  8
EGA-729.PLT
 62
7
 10
17.61444531
 20
24.25561523
  0
VERTEX
  8
EGA-729.PLT
 62
7
 10
17.98762500
 20
24.16904687
  0
VERTEX
  8
EGA-729.PLT
 62
7
 10
18.36230469
 20
24.08742383
  0
VERTEX
  8
EGA-729.PLT
 62
7
 10
18.73825000
 20
24.01087500
  0
VERTEX
  8
EGA-729.PLT
 62
7
 10
19.11522656
 20
23.93952930
  0
VERTEX
  8
EGA-729.PLT
 62
7
 10
19.49300000
 20
23.87351563
  0
VERTEX
  8
EGA-729.PLT
 62
7
 10
19.87133594
 20
23.81296289
  0
VERTEX
  8
EGA-729.PLT
 62
7
 10
20.25000000
 20
23.75800000
  0
VERTEX
  8
EGA-729.PLT
 62
7
 10
20.26157593
 20
23.68145996
  0
VERTEX
  8
EGA-729.PLT
 62
7
 10
20.27890430
 20
23.60688281
  0
VERTEX
  8
EGA-729.PLT
 62
7
 10
20.30176099
 20
23.53452051
  0
VERTEX
  8
EGA-729.PLT
 62
7
 10
20.32992188
 20
23.46462500
  0
VERTEX
  8
EGA-729.PLT
 62
7
 10
20.36316284
 20
23.39744824
  0
VERTEX
  8
EGA-729.PLT
 62
7
 10
20.40125977
 20
23.33324219
  0
VERTEX
  8
EGA-729.PLT
 62
7
 10
20.44398853
 20
23.27225879
  0
VERTEX
  8
EGA-729.PLT
 62
7
 10
20.49112500
 20
23.21475000
  0
VERTEX
  8
EGA-729.PLT
 62
7
 10
20.54244507
 20
23.16096777
  0
VERTEX
  8
EGA-729.PLT
 62
7
 10
20.59772461
 20
23.11116406
  0
VERTEX
  8
EGA-729.PLT
 62
7
 10
20.65673950
 20
23.06559082
  0
VERTEX
  8
EGA-729.PLT
 62
7
 10
20.71926562
 20
23.02450000
  0
VERTEX
  8
EGA-729.PLT
 62
7
 10
20.78507886
 20
22.98814355
  0
VERTEX
  8
EGA-729.PLT
 62
7
 10
20.85395508
 20
22.95677344
  0
VERTEX
  8
EGA-729.PLT
 62
7
 10
20.92567017
 20
22.93064160
  0
VERTEX
  8
EGA-729.PLT
 62
7
 10
21.00000000
 20
22.91000000
  0
VERTEX
  8
EGA-729.PLT
 62
7
 10
21.00000000
 20
6.75200000
  0
VERTEX
  8
EGA-729.PLT
 62
7
 10
20.97800000
 20
6.76600000
  0
VERTEX
  8
EGA-729.PLT
 62
7
 10
20.92564063
 20
6.79765625
  0
VERTEX
  8
EGA-729.PLT
 62
7
 10
20.86962500
 20
6.82200000
  0
VERTEX
  8
EGA-729.PLT
 62
7
 10
20.81079688
 20
6.83884375
  0
VERTEX
  8
EGA-729.PLT
 62
7
 10
20.75000000
 20
6.84800000
  0
VERTEX
  8
EGA-729.PLT
 62
7
 10
20.75000000
 20
22.73000000
  0
VERTEX
  8
EGA-729.PLT
 62
7
 10
20.68595190
 20
22.75893652
  0
VERTEX
  8
EGA-729.PLT
 62
7
 10
20.62400586
 20
22.79128906
  0
VERTEX
  8
EGA-729.PLT
 62
7
 10
20.56427173
 20
22.82693457
  0
VERTEX
  8
EGA-729.PLT
 62
7
 10
20.50685938
 20
22.86575000
  0
VERTEX
  8
EGA-729.PLT
 62
7
 10
20.45187866
 20
22.90761230
  0
VERTEX
  8
EGA-729.PLT
 62
7
 10
20.39943945
 20
22.95239844
  0
VERTEX
  8
EGA-729.PLT
 62
7
 10
20.34965161
 20
22.99998535
  0
VERTEX
  8
EGA-729.PLT
 62
7
 10
20.30262500
 20
23.05025000
  0
VERTEX
  8
EGA-729.PLT
 62
7
 10
20.25846948
 20
23.10306934
  0
VERTEX
  8
EGA-729.PLT
 62
7
 10
20.21729492
 20
23.15832031
  0
VERTEX
  8
EGA-729.PLT
 62
7
 10
20.17921118
 20
23.21587988
  0
VERTEX
  8
EGA-729.PLT
 62
7
 10
20.14432813
 20
23.27562500
  0
VERTEX
  8
EGA-729.PLT
 62
7
 10
20.11275562
 20
23.33743262
  0
VERTEX
  8
EGA-729.PLT
 62
7
 10
20.08460352
 20
23.40117969
  0
VERTEX
  8
EGA-729.PLT
 62
7
 10
20.05998169
 20
23.46674316
  0
VERTEX
  8
EGA-729.PLT
 62
7
 10
20.03900000
 20
23.53400000
  0
VERTEX
  8
EGA-729.PLT
 62
7
 10
19.68043945
 20
23.58843555
  0
VERTEX
  8
EGA-729.PLT
 62
7
 10
19.32132813
 20
23.64810938
  0
VERTEX
  8
EGA-729.PLT
 62
7
 10
18.96214648
 20
23.71282227
  0
VERTEX
  8
EGA-729.PLT
 62
7
 10
18.60337500
 20
23.78237500
  0
VERTEX
  8
EGA-729.PLT
 62
7
 10
18.24549414
 20
23.85656836
  0
VERTEX
  8
EGA-729.PLT
 62
7
 10
17.88898438
 20
23.93520313
  0
VERTEX
  8
EGA-729.PLT
 62
7
 10
17.53432617
 20
24.01808008
  0
VERTEX
  8
EGA-729.PLT
 62
7
 10
17.18200000
 20
24.10500000
  0
VERTEX
  8
EGA-729.PLT
 62
7
 10
16.86261475
 20
24.18310547
  0
VERTEX
  8
EGA-729.PLT
 62
7
 10
16.54237109
 20
24.25617188
  0
VERTEX
  8
EGA-729.PLT
 62
7
 10
16.22132471
 20
24.32419922
  0
VERTEX
  8
EGA-729.PLT
 62
7
 10
15.89953125
 20
24.38718750
  0
VERTEX
  8
EGA-729.PLT
 62
7
 10
15.57704639
 20
24.44513672
  0
VERTEX
  8
EGA-729.PLT
 62
7
 10
15.25392578
 20
24.49804688
  0
VERTEX
  8
EGA-729.PLT
 62
7
 10
14.93022510
 20
24.54591797
  0
VERTEX
  8
EGA-729.PLT
 62
7
 10
14.60600000
 20
24.58875000
  0
VERTEX
  8
EGA-729.PLT
 62
7
 10
14.28130615
 20
24.62654297
  0
VERTEX
  8
EGA-729.PLT
 62
7
 10
13.95619922
 20
24.65929687
  0
VERTEX
  8
EGA-729.PLT
 62
7
 10
13.63073486
 20
24.68701172
  0
VERTEX
  8
EGA-729.PLT
 62
7
 10
13.30496875
 20
24.70968750
  0
VERTEX
  8
EGA-729.PLT
 62
7
 10
12.97895654
 20
24.72732422
  0
VERTEX
  8
EGA-729.PLT
 62
7
 10
12.65275391
 20
24.73992188
  0
VERTEX
  8
EGA-729.PLT
 62
7
 10
12.32641650
 20
24.74748047
  0
SEQEND
  0
POLYLINE
  8
EGA-729.PLT
 62
7
 66
1
 70
1
  0
VERTEX
  8
EGA-729.PLT
 62
7
 10
12.00000000
 20
7.29700000
  0
VERTEX
  8
EGA-729.PLT
 62
7
 10
11.97275000
 20
7.30075000
  0
VERTEX
  8
EGA-729.PLT
 62
7
 10
11.94475000
 20
7.31125000
  0
VERTEX
  8
EGA-729.PLT
 62
7
 10
11.92012500
 20
7.32737500
  0
VERTEX
  8
EGA-729.PLT
 62
7
 10
11.90300000
 20
7.34800000
  0
VERTEX
  8
EGA-729.PLT
 62
7
 10
11.89236133
 20
7.36441992
  0
VERTEX
  8
EGA-729.PLT
 62
7
 10
11.87882813
 20
7.37754688
  0
VERTEX
  8
EGA-729.PLT
 62
7
 10
11.86297461
 20
7.38718164
  0
VERTEX
  8
EGA-729.PLT
 62
7
 10
11.84537500
 20
7.39312500
  0
VERTEX
  8
EGA-729.PLT
 62
7
 10
11.82660352
 20
7.39517773
  0
VERTEX
  8
EGA-729.PLT
 62
7
 10
11.80723438
 20
7.39314063
  0
VERTEX
  8
EGA-729.PLT
 62
7
 10
11.78784180
 20
7.38681445
  0
VERTEX
  8
EGA-729.PLT
 62
7
 10
11.76900000
 20
7.37600000
  0
VERTEX
  8
EGA-729.PLT
 62
7
 10
11.68907813
 20
7.32806250
  0
VERTEX
  8
EGA-729.PLT
 62
7
 10
11.60737500
 20
7.28200000
  0
VERTEX
  8
EGA-729.PLT
 62
7
 10
11.52698438
 20
7.23593750
  0
VERTEX
  8
EGA-729.PLT
 62
7
 10
11.45100000
 20
7.18800000
  0
VERTEX
  8
EGA-729.PLT
 62
7
 10
11.41969531
 20
7.16260156
  0
VERTEX
  8
EGA-729.PLT
 62
7
 10
11.39387500
 20
7.13331250
  0
VERTEX
  8
EGA-729.PLT
 62
7
 10
11.37330469
 20
7.10074219
  0
VERTEX
  8
EGA-729.PLT
 62
7
 10
11.35775000
 20
7.06550000
  0
VERTEX
  8
EGA-729.PLT
 62
7
 10
11.34697656
 20
7.02819531
  0
VERTEX
  8
EGA-729.PLT
 62
7
 10
11.34075000
 20
6.98943750
  0
VERTEX
  8
EGA-729.PLT
 62
7
 10
11.33883594
 20
6.94983594
  0
VERTEX
  8
EGA-729.PLT
 62
7
 10
11.34100000
 20
6.91000000
  0
VERTEX
  8
EGA-729.PLT
 62
7
 10
11.29747656
 20
6.92586133
  0
VERTEX
  8
EGA-729.PLT
 62
7
 10
11.25287500
 20
6.93526563
  0
VERTEX
  8
EGA-729.PLT
 62
7
 10
11.20789844
 20
6.93831836
  0
VERTEX
  8
EGA-729.PLT
 62
7
 10
11.16325000
 20
6.93512500
  0
VERTEX
  8
EGA-729.PLT
 62
7
 10
11.11963281
 20
6.92579102
  0
VERTEX
  8
EGA-729.PLT
 62
7
 10
11.07775000
 20
6.91042187
  0
VERTEX
  8
EGA-729.PLT
 62
7
 10
11.03830469
 20
6.88912305
  0
VERTEX
  8
EGA-729.PLT
 62
7
 10
11.00200000
 20
6.86200000
  0
VERTEX
  8
EGA-729.PLT
 62
7
 10
10.95562500
 20
6.82137500
  0
VERTEX
  8
EGA-729.PLT
 62
7
 10
10.90400000
 20
6.76800000
  0
VERTEX
  8
EGA-729.PLT
 62
7
 10
10.90198438
 20
6.83681250
  0
VERTEX
  8
EGA-729.PLT
 62
7
 10
10.89387500
 20
6.89550000
  0
VERTEX
  8
EGA-729.PLT
 62
7
 10
10.88107813
 20
6.94968750
  0
VERTEX
  8
EGA-729.PLT
 62
7
 10
10.86500000
 20
7.00500000
  0
VERTEX
  8
EGA-729.PLT
 62
7
 10
10.83709375
 20
7.00948438
  0
VERTEX
  8
EGA-729.PLT
 62
7
 10
10.80900000
 20
7.01087500
  0
VERTEX
  8
EGA-729.PLT
 62
7
 10
10.78090625
 20
7.00907813
  0
VERTEX
  8
EGA-729.PLT
 62
7
 10
10.75300000
 20
7.00400000
  0
VERTEX
  8
EGA-729.PLT
 62
7
 10
10.73584155
 20
7.04716187
  0
VERTEX
  8
EGA-729.PLT
 62
7
 10
10.71665430
 20
7.08923242
  0
VERTEX
  8
EGA-729.PLT
 62
7
 10
10.69549536
 20
7.13015161
  0
VERTEX
  8
EGA-729.PLT
 62
7
 10
10.67242188
 20
7.16985937
  0
VERTEX
  8
EGA-729.PLT
 62
7
 10
10.64749097
 20
7.20829565
  0
VERTEX
  8
EGA-729.PLT
 62
7
 10
10.62075977
 20
7.24540039
  0
VERTEX
  8
EGA-729.PLT
 62
7
 10
10.59228540
 20
7.28111353
  0
VERTEX
  8
EGA-729.PLT
 62
7
 10
10.56212500
 20
7.31537500
  0
VERTEX
  8
EGA-729.PLT
 62
7
 10
10.53033569
 20
7.34812476
  0
VERTEX
  8
EGA-729.PLT
 62
7
 10
10.49697461
 20
7.37930273
  0
VERTEX
  8
EGA-729.PLT
 62
7
 10
10.46209888
 20
7.40884888
  0
VERTEX
  8
EGA-729.PLT
 62
7
 10
10.42576563
 20
7.43670313
  0
VERTEX
  8
EGA-729.PLT
 62
7
 10
10.38803198
 20
7.46280542
  0
VERTEX
  8
EGA-729.PLT
 62
7
 10
10.34895508
 20
7.48709570
  0
VERTEX
  8
EGA-729.PLT
 62
7
 10
10.30859204
 20
7.50951392
  0
VERTEX
  8
EGA-729.PLT
 62
7
 10
10.26700000
 20
7.53000000
  0
VERTEX
  8
EGA-729.PLT
 62
7
 10
10.23464063
 20
7.53971289
  0
VERTEX
  8
EGA-729.PLT
 62
7
 10
10.20162500
 20
7.54489062
  0
VERTEX
  8
EGA-729.PLT
 62
7
 10
10.16842188
 20
7.54559180
  0
VERTEX
  8
EGA-729.PLT
 62
7
 10
10.13550000
 20
7.54187500
  0
VERTEX
  8
EGA-729.PLT
 62
7
 10
10.10332813
 20
7.53379883
  0
VERTEX
  8
EGA-729.PLT
 62
7
 10
10.07237500
 20
7.52142187
  0
VERTEX
  8
EGA-729.PLT
 62
7
 10
10.04310938
 20
7.50480273
  0
VERTEX
  8
EGA-729.PLT
 62
7
 10
10.01600000
 20
7.48400000
  0
VERTEX
  8
EGA-729.PLT
 62
7
 10
10.03455078
 20
7.47940820
  0
VERTEX
  8
EGA-729.PLT
 62
7
 10
10.05115625
 20
7.47070313
  0
VERTEX
  8
EGA-729.PLT
 62
7
 10
10.06574609
 20
7.45874023
  0
VERTEX
  8
EGA-729.PLT
 62
7
 10
10.07825000
 20
7.44437500
  0
VERTEX
  8
EGA-729.PLT
 62
7
 10
10.08859766
 20
7.42846289
  0
VERTEX
  8
EGA-729.PLT
 62
7
 10
10.09671875
 20
7.41185937
  0
VERTEX
  8
EGA-729.PLT
 62
7
 10
10.10254297
 20
7.39541992
  0
VERTEX
  8
EGA-729.PLT
 62
7
 10
10.10600000
 20
7.38000000
  0
VERTEX
  8
EGA-729.PLT
 62
7
 10
10.10816602
 20
7.35294727
  0
VERTEX
  8
EGA-729.PLT
 62
7
 10
10.10645313
 20
7.32689062
  0
VERTEX
  8
EGA-729.PLT
 62
7
 10
10.10091992
 20
7.30235742
  0
VERTEX
  8
EGA-729.PLT
 62
7
 10
10.09162500
 20
7.27987500
  0
VERTEX
  8
EGA-729.PLT
 62
7
 10
10.07862695
 20
7.25997070
  0
VERTEX
  8
EGA-729.PLT
 62
7
 10
10.06198438
 20
7.24317187
  0
VERTEX
  8
EGA-729.PLT
 62
7
 10
10.04175586
 20
7.23000586
  0
VERTEX
  8
EGA-729.PLT
 62
7
 10
10.01800000
 20
7.22100000
  0
VERTEX
  8
EGA-729.PLT
 62
7
 10
9.91000000
 20
7.12700000
  0
VERTEX
  8
EGA-729.PLT
 62
7
 10
9.87375000
 20
7.15114063
  0
VERTEX
  8
EGA-729.PLT
 62
7
 10
9.83450000
 20
7.16937500
  0
VERTEX
  8
EGA-729.PLT
 62
7
 10
9.79300000
 20
7.18142187
  0
VERTEX
  8
EGA-729.PLT
 62
7
 10
9.75000000
 20
7.18700000
  0
VERTEX
  8
EGA-729.PLT
 62
7
 10
9.72136914
 20
7.13513672
  0
VERTEX
  8
EGA-729.PLT
 62
7
 10
9.69626563
 20
7.08165625
  0
VERTEX
  8
EGA-729.PLT
 62
7
 10
9.67474805
 20
7.02672266
  0
VERTEX
  8
EGA-729.PLT
 62
7
 10
9.65687500
 20
6.97050000
  0
VERTEX
  8
EGA-729.PLT
 62
7
 10
9.64270508
 20
6.91315234
  0
VERTEX
  8
EGA-729.PLT
 62
7
 10
9.63229687
 20
6.85484375
  0
VERTEX
  8
EGA-729.PLT
 62
7
 10
9.62570898
 20
6.79573828
  0
VERTEX
  8
EGA-729.PLT
 62
7
 10
9.62300000
 20
6.73600000
  0
VERTEX
  8
EGA-729.PLT
 62
7
 10
9.58733130
 20
6.76967358
  0
VERTEX
  8
EGA-729.PLT
 62
7
 10
9.55013477
 20
6.80129492
  0
VERTEX
  8
EGA-729.PLT
 62
7
 10
9.51149976
 20
6.83082739
  0
VERTEX
  8
EGA-729.PLT
 62
7
 10
9.47151563
 20
6.85823438
  0
VERTEX
  8
EGA-729.PLT
 62
7
 10
9.43027173
 20
6.88347925
  0
VERTEX
  8
EGA-729.PLT
 62
7
 10
9.38785742
 20
6.90652539
  0
VERTEX
  8
EGA-729.PLT
 62
7
 10
9.34436206
 20
6.92733618
  0
VERTEX
  8
EGA-729.PLT
 62
7
 10
9.29987500
 20
6.94587500
  0
VERTEX
  8
EGA-729.PLT
 62
7
 10
9.25448560
 20
6.96210522
  0
VERTEX
  8
EGA-729.PLT
 62
7
 10
9.20828320
 20
6.97599023
  0
VERTEX
  8
EGA-729.PLT
 62
7
 10
9.16135718
 20
6.98749341
  0
VERTEX
  8
EGA-729.PLT
 62
7
 10
9.11379688
 20
6.99657813
  0
VERTEX
  8
EGA-729.PLT
 62
7
 10
9.06569165
 20
7.00320776
  0
VERTEX
  8
EGA-729.PLT
 62
7
 10
9.01713086
 20
7.00734570
  0
VERTEX
  8
EGA-729.PLT
 62
7
 10
8.96820386
 20
7.00895532
  0
VERTEX
  8
EGA-729.PLT
 62
7
 10
8.91900000
 20
7.00800000
  0
VERTEX
  8
EGA-729.PLT
 62
7
 10
8.90851562
 20
6.98062500
  0
VERTEX
  8
EGA-729.PLT
 62
7
 10
8.90112500
 20
6.95250000
  0
VERTEX
  8
EGA-729.PLT
 62
7
 10
8.89692188
 20
6.92362500
  0
VERTEX
  8
EGA-729.PLT
 62
7
 10
8.89600000
 20
6.89400000
  0
VERTEX
  8
EGA-729.PLT
 62
7
 10
8.83157813
 20
6.88428125
  0
VERTEX
  8
EGA-729.PLT
 62
7
 10
8.76762500
 20
6.87025000
  0
VERTEX
  8
EGA-729.PLT
 62
7
 10
8.70460938
 20
6.85209375
  0
VERTEX
  8
EGA-729.PLT
 62
7
 10
8.64300000
 20
6.83000000
  0
VERTEX
  8
EGA-729.PLT
 62
7
 10
8.55781531
 20
6.89191312
  0
VERTEX
  8
EGA-729.PLT
 62
7
 10
8.47056152
 20
6.94903931
  0
VERTEX
  8
EGA-729.PLT
 62
7
 10
8.38140784
 20
7.00139633
  0
VERTEX
  8
EGA-729.PLT
 62
7
 10
8.29052344
 20
7.04900195
  0
VERTEX
  8
EGA-729.PLT
 62
7
 10
8.19807751
 20
7.09187393
  0
VERTEX
  8
EGA-729.PLT
 62
7
 10
8.10423926
 20
7.13003003
  0
VERTEX
  8
EGA-729.PLT
 62
7
 10
8.00917786
 20
7.16348801
  0
VERTEX
  8
EGA-729.PLT
 62
7
 10
7.91306250
 20
7.19226563
  0
VERTEX
  8
EGA-729.PLT
 62
7
 10
7.81606238
 20
7.21638065
  0
VERTEX
  8
EGA-729.PLT
 62
7
 10
7.71834668
 20
7.23585083
  0
VERTEX
  8
EGA-729.PLT
 62
7
 10
7.62008459
 20
7.25069394
  0
VERTEX
  8
EGA-729.PLT
 62
7
 10
7.52144531
 20
7.26092773
  0
VERTEX
  8
EGA-729.PLT
 62
7
 10
7.42259802
 20
7.26656998
  0
VERTEX
  8
EGA-729.PLT
 62
7
 10
7.32371191
 20
7.26763843
  0
VERTEX
  8
EGA-729.PLT
 62
7
 10
7.22495618
 20
7.26415085
  0
VERTEX
  8
EGA-729.PLT
 62
7
 10
7.12650000
 20
7.25612500
  0
VERTEX
  8
EGA-729.PLT
 62
7
 10
7.02851257
 20
7.24357864
  0
VERTEX
  8
EGA-729.PLT
 62
7
 10
6.93116309
 20
7.22652954
  0
VERTEX
  8
EGA-729.PLT
 62
7
 10
6.83462073
 20
7.20499545
  0
VERTEX
  8
EGA-729.PLT
 62
7
 10
6.73905469
 20
7.17899414
  0
VERTEX
  8
EGA-729.PLT
 62
7
 10
6.64463416
 20
7.14854337
  0
VERTEX
  8
EGA-729.PLT
 62
7
 10
6.55152832
 20
7.11366089
  0
VERTEX
  8
EGA-729.PLT
 62
7
 10
6.45990637
 20
7.07436447
  0
VERTEX
  8
EGA-729.PLT
 62
7
 10
6.36993750
 20
7.03067188
  0
VERTEX
  8
EGA-729.PLT
 62
7
 10
6.28179089
 20
6.98260086
  0
VERTEX
  8
EGA-729.PLT
 62
7
 10
6.19563574
 20
6.93016919
  0
VERTEX
  8
EGA-729.PLT
 62
7
 10
6.11164124
 20
6.87339462
  0
VERTEX
  8
EGA-729.PLT
 62
7
 10
6.02997656
 20
6.81229492
  0
VERTEX
  8
EGA-729.PLT
 62
7
 10
5.95081091
 20
6.74688785
  0
VERTEX
  8
EGA-729.PLT
 62
7
 10
5.87431348
 20
6.67719116
  0
VERTEX
  8
EGA-729.PLT
 62
7
 10
5.80065344
 20
6.60322263
  0
VERTEX
  8
EGA-729.PLT
 62
7
 10
5.73000000
 20
6.52500000
  0
VERTEX
  8
EGA-729.PLT
 62
7
 10
5.68152930
 20
6.45818750
  0
VERTEX
  8
EGA-729.PLT
 62
7
 10
5.62854687
 20
6.39587500
  0
VERTEX
  8
EGA-729.PLT
 62
7
 10
5.57132227
 20
6.33825000
  0
VERTEX
  8
EGA-729.PLT
 62
7
 10
5.51012500
 20
6.28550000
  0
VERTEX
  8
EGA-729.PLT
 62
7
 10
5.44522461
 20
6.23781250
  0
VERTEX
  8
EGA-729.PLT
 62
7
 10
5.37689062
 20
6.19537500
  0
VERTEX
  8
EGA-729.PLT
 62
7
 10
5.30539258
 20
6.15837500
  0
VERTEX
  8
EGA-729.PLT
 62
7
 10
5.23100000
 20
6.12700000
  0
VERTEX
  8
EGA-729.PLT
 62
7
 10
5.27100000
 20
6.17100000
  0
VERTEX
  8
EGA-729.PLT
 62
7
 10
5.30890845
 20
6.21332666
  0
VERTEX
  8
EGA-729.PLT
 62
7
 10
5.34200195
 20
6.25831641
  0
VERTEX
  8
EGA-729.PLT
 62
7
 10
5.37027026
 20
6.30560889
  0
VERTEX
  8
EGA-729.PLT
 62
7
 10
5.39370313
 20
6.35484375
  0
VERTEX
  8
EGA-729.PLT
 62
7
 10
5.41229028
 20
6.40566064
  0
VERTEX
  8
EGA-729.PLT
 62
7
 10
5.42602148
 20
6.45769922
  0
VERTEX
  8
EGA-729.PLT
 62
7
 10
5.43488647
 20
6.51059912
  0
VERTEX
  8
EGA-729.PLT
 62
7
 10
5.43887500
 20
6.56400000
  0
VERTEX
  8
EGA-729.PLT
 62
7
 10
5.43797681
 20
6.61754150
  0
VERTEX
  8
EGA-729.PLT
 62
7
 10
5.43218164
 20
6.67086328
  0
VERTEX
  8
EGA-729.PLT
 62
7
 10
5.42147925
 20
6.72360498
  0
VERTEX
  8
EGA-729.PLT
 62
7
 10
5.40585938
 20
6.77540625
  0
VERTEX
  8
EGA-729.PLT
 62
7
 10
5.38531177
 20
6.82590674
  0
VERTEX
  8
EGA-729.PLT
 62
7
 10
5.35982617
 20
6.87474609
  0
VERTEX
  8
EGA-729.PLT
 62
7
 10
5.32939233
 20
6.92156396
  0
VERTEX
  8
EGA-729.PLT
 62
7
 10
5.29400000
 20
6.96600000
  0
VERTEX
  8
EGA-729.PLT
 62
7
 10
5.27031982
 20
6.99517285
  0
VERTEX
  8
EGA-729.PLT
 62
7
 10
5.24508984
 20
7.02266406
  0
VERTEX
  8
EGA-729.PLT
 62
7
 10
5.21840088
 20
7.04843262
  0
VERTEX
  8
EGA-729.PLT
 62
7
 10
5.19034375
 20
7.07243750
  0
VERTEX
  8
EGA-729.PLT
 62
7
 10
5.16100928
 20
7.09463770
  0
VERTEX
  8
EGA-729.PLT
 62
7
 10
5.13048828
 20
7.11499219
  0
VERTEX
  8
EGA-729.PLT
 62
7
 10
5.09887158
 20
7.13345996
  0
VERTEX
  8
EGA-729.PLT
 62
7
 10
5.06625000
 20
7.15000000
  0
VERTEX
  8
EGA-729.PLT
 62
7
 10
5.03271436
 20
7.16457129
  0
VERTEX
  8
EGA-729.PLT
 62
7
 10
4.99835547
 20
7.17713281
  0
VERTEX
  8
EGA-729.PLT
 62
7
 10
4.96326416
 20
7.18764355
  0
VERTEX
  8
EGA-729.PLT
 62
7
 10
4.92753125
 20
7.19606250
  0
VERTEX
  8
EGA-729.PLT
 62
7
 10
4.89124756
 20
7.20234863
  0
VERTEX
  8
EGA-729.PLT
 62
7
 10
4.85450391
 20
7.20646094
  0
VERTEX
  8
EGA-729.PLT
 62
7
 10
4.81739111
 20
7.20835840
  0
VERTEX
  8
EGA-729.PLT
 62
7
 10
4.78000000
 20
7.20800000
  0
VERTEX
  8
EGA-729.PLT
 62
7
 10
4.74270190
 20
7.20537134
  0
VERTEX
  8
EGA-729.PLT
 62
7
 10
4.70586523
 20
7.20051758
  0
VERTEX
  8
EGA-729.PLT
 62
7
 10
4.66957642
 20
7.19348706
  0
VERTEX
  8
EGA-729.PLT
 62
7
 10
4.63392188
 20
7.18432813
  0
VERTEX
  8
EGA-729.PLT
 62
7
 10
4.59898804
 20
7.17308911
  0
VERTEX
  8
EGA-729.PLT
 62
7
 10
4.56486133
 20
7.15981836
  0
VERTEX
  8
EGA-729.PLT
 62
7
 10
4.53162817
 20
7.14456421
  0
VERTEX
  8
EGA-729.PLT
 62
7
 10
4.49937500
 20
7.12737500
  0
VERTEX
  8
EGA-729.PLT
 62
7
 10
4.46818823
 20
7.10829907
  0
VERTEX
  8
EGA-729.PLT
 62
7
 10
4.43815430
 20
7.08738477
  0
VERTEX
  8
EGA-729.PLT
 62
7
 10
4.40935962
 20
7.06468042
  0
VERTEX
  8
EGA-729.PLT
 62
7
 10
4.38189062
 20
7.04023437
  0
VERTEX
  8
EGA-729.PLT
 62
7
 10
4.35583374
 20
7.01409497
  0
VERTEX
  8
EGA-729.PLT
 62
7
 10
4.33127539
 20
6.98631055
  0
VERTEX
  8
EGA-729.PLT
 62
7
 10
4.30830200
 20
6.95692944
  0
VERTEX
  8
EGA-729.PLT
 62
7
 10
4.28700000
 20
6.92600000
  0
VERTEX
  8
EGA-729.PLT
 62
7
 10
4.26281445
 20
6.95934766
  0
VERTEX
  8
EGA-729.PLT
 62
7
 10
4.23545313
 20
6.98953125
  0
VERTEX
  8
EGA-729.PLT
 62
7
 10
4.20520898
 20
7.01638672
  0
VERTEX
  8
EGA-729.PLT
 62
7
 10
4.17237500
 20
7.03975000
  0
VERTEX
  8
EGA-729.PLT
 62
7
 10
4.13724414
 20
7.05945703
  0
VERTEX
  8
EGA-729.PLT
 62
7
 10
4.10010937
 20
7.07534375
  0
VERTEX
  8
EGA-729.PLT
 62
7
 10
4.06126367
 20
7.08724609
  0
VERTEX
  8
EGA-729.PLT
 62
7
 10
4.02100000
 20
7.09500000
  0
VERTEX
  8
EGA-729.PLT
 62
7
 10
3.98692383
 20
7.10531250
  0
VERTEX
  8
EGA-729.PLT
 62
7
 10
3.95464063
 20
7.11956250
  0
VERTEX
  8
EGA-729.PLT
 62
7
 10
3.92444336
 20
7.13746875
  0
VERTEX
  8
EGA-729.PLT
 62
7
 10
3.89662500
 20
7.15875000
  0
VERTEX
  8
EGA-729.PLT
 62
7
 10
3.87147852
 20
7.18312500
  0
VERTEX
  8
EGA-729.PLT
 62
7
 10
3.84929687
 20
7.21031250
  0
VERTEX
  8
EGA-729.PLT
 62
7
 10
3.83037305
 20
7.24003125
  0
VERTEX
  8
EGA-729.PLT
 62
7
 10
3.81500000
 20
7.27200000
  0
VERTEX
  8
EGA-729.PLT
 62
7
 10
3.79960352
 20
7.23644727
  0
VERTEX
  8
EGA-729.PLT
 62
7
 10
3.78126563
 20
7.20264062
  0
VERTEX
  8
EGA-729.PLT
 62
7
 10
3.76013867
 20
7.17073242
  0
VERTEX
  8
EGA-729.PLT
 62
7
 10
3.73637500
 20
7.14087500
  0
VERTEX
  8
EGA-729.PLT
 62
7
 10
3.71012695
 20
7.11322070
  0
VERTEX
  8
EGA-729.PLT
 62
7
 10
3.68154688
 20
7.08792188
  0
VERTEX
  8
EGA-729.PLT
 62
7
 10
3.65078711
 20
7.06513086
  0
VERTEX
  8
EGA-729.PLT
 62
7
 10
3.61800000
 20
7.04500000
  0
VERTEX
  8
EGA-729.PLT
 62
7
 10
3.58961719
 20
7.02371094
  0
VERTEX
  8
EGA-729.PLT
 62
7
 10
3.56381250
 20
6.99975000
  0
VERTEX
  8
EGA-729.PLT
 62
7
 10
3.54072656
 20
6.97335156
  0
VERTEX
  8
EGA-729.PLT
 62
7
 10
3.52050000
 20
6.94475000
  0
VERTEX
  8
EGA-729.PLT
 62
7
 10
3.50327344
 20
6.91417969
  0
VERTEX
  8
EGA-729.PLT
 62
7
 10
3.48918750
 20
6.88187500
  0
VERTEX
  8
EGA-729.PLT
 62
7
 10
3.47838281
 20
6.84807031
  0
VERTEX
  8
EGA-729.PLT
 62
7
 10
3.47100000
 20
6.81300000
  0
VERTEX
  8
EGA-729.PLT
 62
7
 10
3.43956250
 20
6.82478125
  0
VERTEX
  8
EGA-729.PLT
 62
7
 10
3.40700000
 20
6.83450000
  0
VERTEX
  8
EGA-729.PLT
 62
7
 10
3.37368750
 20
6.84196875
  0
VERTEX
  8
EGA-729.PLT
 62
7
 10
3.34000000
 20
6.84700000
  0
VERTEX
  8
EGA-729.PLT
 62
7
 10
3.34000000
 20
22.67100000
  0
VERTEX
  8
EGA-729.PLT
 62
7
 10
3.40039551
 20
22.70153516
  0
VERTEX
  8
EGA-729.PLT
 62
7
 10
3.45889844
 20
22.73495313
  0
VERTEX
  8
EGA-729.PLT
 62
7
 10
3.51542090
 20
22.77116016
  0
VERTEX
  8
EGA-729.PLT
 62
7
 10
3.56987500
 20
22.81006250
  0
VERTEX
  8
EGA-729.PLT
 62
7
 10
3.62217285
 20
22.85156641
  0
VERTEX
  8
EGA-729.PLT
 62
7
 10
3.67222656
 20
22.89557813
  0
VERTEX
  8
EGA-729.PLT
 62
7
 10
3.71994824
 20
22.94200391
  0
VERTEX
  8
EGA-729.PLT
 62
7
 10
3.76525000
 20
22.99075000
  0
VERTEX
  8
EGA-729.PLT
 62
7
 10
3.80804395
 20
23.04172266
  0
VERTEX
  8
EGA-729.PLT
 62
7
 10
3.84824219
 20
23.09482812
  0
VERTEX
  8
EGA-729.PLT
 62
7
 10
3.88575684
 20
23.14997266
  0
VERTEX
  8
EGA-729.PLT
 62
7
 10
3.92050000
 20
23.20706250
  0
VERTEX
  8
EGA-729.PLT
 62
7
 10
3.95238379
 20
23.26600391
  0
VERTEX
  8
EGA-729.PLT
 62
7
 10
3.98132031
 20
23.32670313
  0
VERTEX
  8
EGA-729.PLT
 62
7
 10
4.00722168
 20
23.38906641
  0
VERTEX
  8
EGA-729.PLT
 62
7
 10
4.03000000
 20
23.45300000
  0
VERTEX
  8
EGA-729.PLT
 62
7
 10
4.38305469
 20
23.50725781
  0
VERTEX
  8
EGA-729.PLT
 62
7
 10
4.73625000
 20
23.56643750
  0
VERTEX
  8
EGA-729.PLT
 62
7
 10
5.08925781
 20
23.63039844
  0
VERTEX
  8
EGA-729.PLT
 62
7
 10
5.44175000
 20
23.69900000
  0
VERTEX
  8
EGA-729.PLT
 62
7
 10
5.79339844
 20
23.77210156
  0
VERTEX
  8
EGA-729.PLT
 62
7
 10
6.14387500
 20
23.84956250
  0
VERTEX
  8
EGA-729.PLT
 62
7
 10
6.49285156
 20
23.93124219
  0
VERTEX
  8
EGA-729.PLT
 62
7
 10
6.84000000
 20
24.01700000
  0
VERTEX
  8
EGA-729.PLT
 62
7
 10
7.15807251
 20
24.09475342
  0
VERTEX
  8
EGA-729.PLT
 62
7
 10
7.47700195
 20
24.16751172
  0
VERTEX
  8
EGA-729.PLT
 62
7
 10
7.79673120
 20
24.23527197
  0
VERTEX
  8
EGA-729.PLT
 62
7
 10
8.11720312
 20
24.29803125
  0
VERTEX
  8
EGA-729.PLT
 62
7
 10
8.43836060
 20
24.35578662
  0
VERTEX
  8
EGA-729.PLT
 62
7
 10
8.76014648
 20
24.40853516
  0
VERTEX
  8
EGA-729.PLT
 62
7
 10
9.08250366
 20
24.45627393
  0
VERTEX
  8
EGA-729.PLT
 62
7
 10
9.40537500
 20
24.49900000
  0
VERTEX
  8
EGA-729.PLT
 62
7
 10
9.72870337
 20
24.53671045
  0
VERTEX
  8
EGA-729.PLT
 62
7
 10
10.05243164
 20
24.56940234
  0
VERTEX
  8
EGA-729.PLT
 62
7
 10
10.37650269
 20
24.59707275
  0
VERTEX
  8
EGA-729.PLT
 62
7
 10
10.70085938
 20
24.61971875
  0
VERTEX
  8
EGA-729.PLT
 62
7
 10
11.02544458
 20
24.63733740
  0
VERTEX
  8
EGA-729.PLT
 62
7
 10
11.35020117
 20
24.64992578
  0
VERTEX
  8
EGA-729.PLT
 62
7
 10
11.67507202
 20
24.65748096
  0
VERTEX
  8
EGA-729.PLT
 62
7
 10
12.00000000
 20
24.66000000
  0
VERTEX
  8
EGA-729.PLT
 62
7
 10
12.32492798
 20
24.65748096
  0
VERTEX
  8
EGA-729.PLT
 62
7
 10
12.64979883
 20
24.64992578
  0
VERTEX
  8
EGA-729.PLT
 62
7
 10
12.97455542
 20
24.63733740
  0
VERTEX
  8
EGA-729.PLT
 62
7
 10
13.29914063
 20
24.61971875
  0
VERTEX
  8
EGA-729.PLT
 62
7
 10
13.62349731
 20
24.59707275
  0
VERTEX
  8
EGA-729.PLT
 62
7
 10
13.94756836
 20
24.56940234
  0
VERTEX
  8
EGA-729.PLT
 62
7
 10
14.27129663
 20
24.53671045
  0
VERTEX
  8
EGA-729.PLT
 62
7
 10
14.59462500
 20
24.49900000
  0
VERTEX
  8
EGA-729.PLT
 62
7
 10
14.91749634
 20
24.45627393
  0
VERTEX
  8
EGA-729.PLT
 62
7
 10
15.23985352
 20
24.40853516
  0
VERTEX
  8
EGA-729.PLT
 62
7
 10
15.56163940
 20
24.35578662
  0
VERTEX
  8
EGA-729.PLT
 62
7
 10
15.88279688
 20
24.29803125
  0
VERTEX
  8
EGA-729.PLT
 62
7
 10
16.20326880
 20
24.23527197
  0
VERTEX
  8
EGA-729.PLT
 62
7
 10
16.52299805
 20
24.16751172
  0
VERTEX
  8
EGA-729.PLT
 62
7
 10
16.84192749
 20
24.09475342
  0
VERTEX
  8
EGA-729.PLT
 62
7
 10
17.16000000
 20
24.01700000
  0
VERTEX
  8
EGA-729.PLT
 62
7
 10
17.50714844
 20
23.93124219
  0
VERTEX
  8
EGA-729.PLT
 62
7
 10
17.85612500
 20
23.84956250
  0
VERTEX
  8
EGA-729.PLT
 62
7
 10
18.20660156
 20
23.77210156
  0
VERTEX
  8
EGA-729.PLT
 62
7
 10
18.55825000
 20
23.69900000
  0
VERTEX
  8
EGA-729.PLT
 62
7
 10
18.91074219
 20
23.63039844
  0
VERTEX
  8
EGA-729.PLT
 62
7
 10
19.26375000
 20
23.56643750
  0
VERTEX
  8
EGA-729.PLT
 62
7
 10
19.61694531
 20
23.50725781
  0
VERTEX
  8
EGA-729.PLT
 62
7
 10
19.97000000
 20
23.45300000
  0
VERTEX
  8
EGA-729.PLT
 62
7
 10
19.99277832
 20
23.38906641
  0
VERTEX
  8
EGA-729.PLT
 62
7
 10
20.01867969
 20
23.32670313
  0
VERTEX
  8
EGA-729.PLT
 62
7
 10
20.04761621
 20
23.26600391
  0
VERTEX
  8
EGA-729.PLT
 62
7
 10
20.07950000
 20
23.20706250
  0
VERTEX
  8
EGA-729.PLT
 62
7
 10
20.11424316
 20
23.14997266
  0
VERTEX
  8
EGA-729.PLT
 62
7
 10
20.15175781
 20
23.09482812
  0
VERTEX
  8
EGA-729.PLT
 62
7
 10
20.19195605
 20
23.04172266
  0
VERTEX
  8
EGA-729.PLT
 62
7
 10
20.23475000
 20
22.99075000
  0
VERTEX
  8
EGA-729.PLT
 62
7
 10
20.28005176
 20
22.94200391
  0
VERTEX
  8
EGA-729.PLT
 62
7
 10
20.32777344
 20
22.89557813
  0
VERTEX
  8
EGA-729.PLT
 62
7
 10
20.37782715
 20
22.85156641
  0
VERTEX
  8
EGA-729.PLT
 62
7
 10
20.43012500
 20
22.81006250
  0
VERTEX
  8
EGA-729.PLT
 62
7
 10
20.48457910
 20
22.77116016
  0
VERTEX
  8
EGA-729.PLT
 62
7
 10
20.54110156
 20
22.73495313
  0
VERTEX
  8
EGA-729.PLT
 62
7
 10
20.59960449
 20
22.70153516
  0
VERTEX
  8
EGA-729.PLT
 62
7
 10
20.66000000
 20
22.67100000
  0
VERTEX
  8
EGA-729.PLT
 62
7
 10
20.66000000
 20
6.84700000
  0
VERTEX
  8
EGA-729.PLT
 62
7
 10
20.62631250
 20
6.84196875
  0
VERTEX
  8
EGA-729.PLT
 62
7
 10
20.59300000
 20
6.83450000
  0
VERTEX
  8
EGA-729.PLT
 62
7
 10
20.56043750
 20
6.82478125
  0
VERTEX
  8
EGA-729.PLT
 62
7
 10
20.52900000
 20
6.81300000
  0
VERTEX
  8
EGA-729.PLT
 62
7
 10
20.52161719
 20
6.84807031
  0
VERTEX
  8
EGA-729.PLT
 62
7
 10
20.51081250
 20
6.88187500
  0
VERTEX
  8
EGA-729.PLT
 62
7
 10
20.49672656
 20
6.91417969
  0
VERTEX
  8
EGA-729.PLT
 62
7
 10
20.47950000
 20
6.94475000
  0
VERTEX
  8
EGA-729.PLT
 62
7
 10
20.45927344
 20
6.97335156
  0
VERTEX
  8
EGA-729.PLT
 62
7
 10
20.43618750
 20
6.99975000
  0
VERTEX
  8
EGA-729.PLT
 62
7
 10
20.41038281
 20
7.02371094
  0
VERTEX
  8
EGA-729.PLT
 62
7
 10
20.38200000
 20
7.04500000
  0
VERTEX
  8
EGA-729.PLT
 62
7
 10
20.34921289
 20
7.06513086
  0
VERTEX
  8
EGA-729.PLT
 62
7
 10
20.31845313
 20
7.08792188
  0
VERTEX
  8
EGA-729.PLT
 62
7
 10
20.28987305
 20
7.11322070
  0
VERTEX
  8
EGA-729.PLT
 62
7
 10
20.26362500
 20
7.14087500
  0
VERTEX
  8
EGA-729.PLT
 62
7
 10
20.23986133
 20
7.17073242
  0
VERTEX
  8
EGA-729.PLT
 62
7
 10
20.21873438
 20
7.20264062
  0
VERTEX
  8
EGA-729.PLT
 62
7
 10
20.20039648
 20
7.23644727
  0
VERTEX
  8
EGA-729.PLT
 62
7
 10
20.18500000
 20
7.27200000
  0
VERTEX
  8
EGA-729.PLT
 62
7
 10
20.16962695
 20
7.24003125
  0
VERTEX
  8
EGA-729.PLT
 62
7
 10
20.15070313
 20
7.21031250
  0
VERTEX
  8
EGA-729.PLT
 62
7
 10
20.12852148
 20
7.18312500
  0
VERTEX
  8
EGA-729.PLT
 62
7
 10
20.10337500
 20
7.15875000
  0
VERTEX
  8
EGA-729.PLT
 62
7
 10
20.07555664
 20
7.13746875
  0
VERTEX
  8
EGA-729.PLT
 62
7
 10
20.04535938
 20
7.11956250
  0
VERTEX
  8
EGA-729.PLT
 62
7
 10
20.01307617
 20
7.10531250
  0
VERTEX
  8
EGA-729.PLT
 62
7
 10
19.97900000
 20
7.09500000
  0
VERTEX
  8
EGA-729.PLT
 62
7
 10
19.93873633
 20
7.08724609
  0
VERTEX
  8
EGA-729.PLT
 62
7
 10
19.89989063
 20
7.07534375
  0
VERTEX
  8
EGA-729.PLT
 62
7
 10
19.86275586
 20
7.05945703
  0
VERTEX
  8
EGA-729.PLT
 62
7
 10
19.82762500
 20
7.03975000
  0
VERTEX
  8
EGA-729.PLT
 62
7
 10
19.79479102
 20
7.01638672
  0
VERTEX
  8
EGA-729.PLT
 62
7
 10
19.76454688
 20
6.98953125
  0
VERTEX
  8
EGA-729.PLT
 62
7
 10
19.73718555
 20
6.95934766
  0
VERTEX
  8
EGA-729.PLT
 62
7
 10
19.71300000
 20
6.92600000
  0
VERTEX
  8
EGA-729.PLT
 62
7
 10
19.69169800
 20
6.95692944
  0
VERTEX
  8
EGA-729.PLT
 62
7
 10
19.66872461
 20
6.98631055
  0
VERTEX
  8
EGA-729.PLT
 62
7
 10
19.64416626
 20
7.01409497
  0
VERTEX
  8
EGA-729.PLT
 62
7
 10
19.61810938
 20
7.04023437
  0
VERTEX
  8
EGA-729.PLT
 62
7
 10
19.59064038
 20
7.06468042
  0
VERTEX
  8
EGA-729.PLT
 62
7
 10
19.56184570
 20
7.08738477
  0
VERTEX
  8
EGA-729.PLT
 62
7
 10
19.53181177
 20
7.10829907
  0
VERTEX
  8
EGA-729.PLT
 62
7
 10
19.50062500
 20
7.12737500
  0
VERTEX
  8
EGA-729.PLT
 62
7
 10
19.46837183
 20
7.14456421
  0
VERTEX
  8
EGA-729.PLT
 62
7
 10
19.43513867
 20
7.15981836
  0
VERTEX
  8
EGA-729.PLT
 62
7
 10
19.40101196
 20
7.17308911
  0
VERTEX
  8
EGA-729.PLT
 62
7
 10
19.36607813
 20
7.18432813
  0
VERTEX
  8
EGA-729.PLT
 62
7
 10
19.33042358
 20
7.19348706
  0
VERTEX
  8
EGA-729.PLT
 62
7
 10
19.29413477
 20
7.20051758
  0
VERTEX
  8
EGA-729.PLT
 62
7
 10
19.25729810
 20
7.20537134
  0
VERTEX
  8
EGA-729.PLT
 62
7
 10
19.22000000
 20
7.20800000
  0
VERTEX
  8
EGA-729.PLT
 62
7
 10
19.18260889
 20
7.20835840
  0
VERTEX
  8
EGA-729.PLT
 62
7
 10
19.14549609
 20
7.20646094
  0
VERTEX
  8
EGA-729.PLT
 62
7
 10
19.10875244
 20
7.20234863
  0
VERTEX
  8
EGA-729.PLT
 62
7
 10
19.07246875
 20
7.19606250
  0
VERTEX
  8
EGA-729.PLT
 62
7
 10
19.03673584
 20
7.18764355
  0
VERTEX
  8
EGA-729.PLT
 62
7
 10
19.00164453
 20
7.17713281
  0
VERTEX
  8
EGA-729.PLT
 62
7
 10
18.96728564
 20
7.16457129
  0
VERTEX
  8
EGA-729.PLT
 62
7
 10
18.93375000
 20
7.15000000
  0
VERTEX
  8
EGA-729.PLT
 62
7
 10
18.90112842
 20
7.13345996
  0
VERTEX
  8
EGA-729.PLT
 62
7
 10
18.86951172
 20
7.11499219
  0
VERTEX
  8
EGA-729.PLT
 62
7
 10
18.83899072
 20
7.09463770
  0
VERTEX
  8
EGA-729.PLT
 62
7
 10
18.80965625
 20
7.07243750
  0
VERTEX
  8
EGA-729.PLT
 62
7
 10
18.78159912
 20
7.04843262
  0
VERTEX
  8
EGA-729.PLT
 62
7
 10
18.75491016
 20
7.02266406
  0
VERTEX
  8
EGA-729.PLT
 62
7
 10
18.72968018
 20
6.99517285
  0
VERTEX
  8
EGA-729.PLT
 62
7
 10
18.70600000
 20
6.96600000
  0
VERTEX
  8
EGA-729.PLT
 62
7
 10
18.67060767
 20
6.92156396
  0
VERTEX
  8
EGA-729.PLT
 62
7
 10
18.64017383
 20
6.87474609
  0
VERTEX
  8
EGA-729.PLT
 62
7
 10
18.61468823
 20
6.82590674
  0
VERTEX
  8
EGA-729.PLT
 62
7
 10
18.59414063
 20
6.77540625
  0
VERTEX
  8
EGA-729.PLT
 62
7
 10
18.57852075
 20
6.72360498
  0
VERTEX
  8
EGA-729.PLT
 62
7
 10
18.56781836
 20
6.67086328
  0
VERTEX
  8
EGA-729.PLT
 62
7
 10
18.56202319
 20
6.61754150
  0
VERTEX
  8
EGA-729.PLT
 62
7
 10
18.56112500
 20
6.56400000
  0
VERTEX
  8
EGA-729.PLT
 62
7
 10
18.56511353
 20
6.51059912
  0
VERTEX
  8
EGA-729.PLT
 62
7
 10
18.57397852
 20
6.45769922
  0
VERTEX
  8
EGA-729.PLT
 62
7
 10
18.58770972
 20
6.40566064
  0
VERTEX
  8
EGA-729.PLT
 62
7
 10
18.60629688
 20
6.35484375
  0
VERTEX
  8
EGA-729.PLT
 62
7
 10
18.62972974
 20
6.30560889
  0
VERTEX
  8
EGA-729.PLT
 62
7
 10
18.65799805
 20
6.25831641
  0
VERTEX
  8
EGA-729.PLT
 62
7
 10
18.69109155
 20
6.21332666
  0
VERTEX
  8
EGA-729.PLT
 62
7
 10
18.72900000
 20
6.17100000
  0
VERTEX
  8
EGA-729.PLT
 62
7
 10
18.76900000
 20
6.12700000
  0
VERTEX
  8
EGA-729.PLT
 62
7
 10
18.69460742
 20
6.15837500
  0
VERTEX
  8
EGA-729.PLT
 62
7
 10
18.62310937
 20
6.19537500
  0
VERTEX
  8
EGA-729.PLT
 62
7
 10
18.55477539
 20
6.23781250
  0
VERTEX
  8
EGA-729.PLT
 62
7
 10
18.48987500
 20
6.28550000
  0
VERTEX
  8
EGA-729.PLT
 62
7
 10
18.42867773
 20
6.33825000
  0
VERTEX
  8
EGA-729.PLT
 62
7
 10
18.37145312
 20
6.39587500
  0
VERTEX
  8
EGA-729.PLT
 62
7
 10
18.31847070
 20
6.45818750
  0
VERTEX
  8
EGA-729.PLT
 62
7
 10
18.27000000
 20
6.52500000
  0
VERTEX
  8
EGA-729.PLT
 62
7
 10
18.19934656
 20
6.60322263
  0
VERTEX
  8
EGA-729.PLT
 62
7
 10
18.12568652
 20
6.67719116
  0
VERTEX
  8
EGA-729.PLT
 62
7
 10
18.04918909
 20
6.74688785
  0
VERTEX
  8
EGA-729.PLT
 62
7
 10
17.97002344
 20
6.81229492
  0
VERTEX
  8
EGA-729.PLT
 62
7
 10
17.88835876
 20
6.87339462
  0
VERTEX
  8
EGA-729.PLT
 62
7
 10
17.80436426
 20
6.93016919
  0
VERTEX
  8
EGA-729.PLT
 62
7
 10
17.71820911
 20
6.98260086
  0
VERTEX
  8
EGA-729.PLT
 62
7
 10
17.63006250
 20
7.03067188
  0
VERTEX
  8
EGA-729.PLT
 62
7
 10
17.54009363
 20
7.07436447
  0
VERTEX
  8
EGA-729.PLT
 62
7
 10
17.44847168
 20
7.11366089
  0
VERTEX
  8
EGA-729.PLT
 62
7
 10
17.35536584
 20
7.14854337
  0
VERTEX
  8
EGA-729.PLT
 62
7
 10
17.26094531
 20
7.17899414
  0
VERTEX
  8
EGA-729.PLT
 62
7
 10
17.16537927
 20
7.20499545
  0
VERTEX
  8
EGA-729.PLT
 62
7
 10
17.06883691
 20
7.22652954
  0
VERTEX
  8
EGA-729.PLT
 62
7
 10
16.97148743
 20
7.24357864
  0
VERTEX
  8
EGA-729.PLT
 62
7
 10
16.87350000
 20
7.25612500
  0
VERTEX
  8
EGA-729.PLT
 62
7
 10
16.77504382
 20
7.26415085
  0
VERTEX
  8
EGA-729.PLT
 62
7
 10
16.67628809
 20
7.26763843
  0
VERTEX
  8
EGA-729.PLT
 62
7
 10
16.57740198
 20
7.26656998
  0
VERTEX
  8
EGA-729.PLT
 62
7
 10
16.47855469
 20
7.26092773
  0
VERTEX
  8
EGA-729.PLT
 62
7
 10
16.37991541
 20
7.25069394
  0
VERTEX
  8
EGA-729.PLT
 62
7
 10
16.28165332
 20
7.23585083
  0
VERTEX
  8
EGA-729.PLT
 62
7
 10
16.18393762
 20
7.21638065
  0
VERTEX
  8
EGA-729.PLT
 62
7
 10
16.08693750
 20
7.19226563
  0
VERTEX
  8
EGA-729.PLT
 62
7
 10
15.99082214
 20
7.16348801
  0
VERTEX
  8
EGA-729.PLT
 62
7
 10
15.89576074
 20
7.13003003
  0
VERTEX
  8
EGA-729.PLT
 62
7
 10
15.80192249
 20
7.09187393
  0
VERTEX
  8
EGA-729.PLT
 62
7
 10
15.70947656
 20
7.04900195
  0
VERTEX
  8
EGA-729.PLT
 62
7
 10
15.61859216
 20
7.00139633
  0
VERTEX
  8
EGA-729.PLT
 62
7
 10
15.52943848
 20
6.94903931
  0
VERTEX
  8
EGA-729.PLT
 62
7
 10
15.44218469
 20
6.89191312
  0
VERTEX
  8
EGA-729.PLT
 62
7
 10
15.35700000
 20
6.83000000
  0
VERTEX
  8
EGA-729.PLT
 62
7
 10
15.29539063
 20
6.85209375
  0
VERTEX
  8
EGA-729.PLT
 62
7
 10
15.23237500
 20
6.87025000
  0
VERTEX
  8
EGA-729.PLT
 62
7
 10
15.16842188
 20
6.88428125
  0
VERTEX
  8
EGA-729.PLT
 62
7
 10
15.10400000
 20
6.89400000
  0
VERTEX
  8
EGA-729.PLT
 62
7
 10
15.10307813
 20
6.92362500
  0
VERTEX
  8
EGA-729.PLT
 62
7
 10
15.09887500
 20
6.95250000
  0
VERTEX
  8
EGA-729.PLT
 62
7
 10
15.09148438
 20
6.98062500
  0
VERTEX
  8
EGA-729.PLT
 62
7
 10
15.08100000
 20
7.00800000
  0
VERTEX
  8
EGA-729.PLT
 62
7
 10
15.03179614
 20
7.00895532
  0
VERTEX
  8
EGA-729.PLT
 62
7
 10
14.98286914
 20
7.00734570
  0
VERTEX
  8
EGA-729.PLT
 62
7
 10
14.93430835
 20
7.00320776
  0
VERTEX
  8
EGA-729.PLT
 62
7
 10
14.88620313
 20
6.99657813
  0
VERTEX
  8
EGA-729.PLT
 62
7
 10
14.83864282
 20
6.98749341
  0
VERTEX
  8
EGA-729.PLT
 62
7
 10
14.79171680
 20
6.97599023
  0
VERTEX
  8
EGA-729.PLT
 62
7
 10
14.74551440
 20
6.96210522
  0
VERTEX
  8
EGA-729.PLT
 62
7
 10
14.70012500
 20
6.94587500
  0
VERTEX
  8
EGA-729.PLT
 62
7
 10
14.65563794
 20
6.92733618
  0
VERTEX
  8
EGA-729.PLT
 62
7
 10
14.61214258
 20
6.90652539
  0
VERTEX
  8
EGA-729.PLT
 62
7
 10
14.56972827
 20
6.88347925
  0
VERTEX
  8
EGA-729.PLT
 62
7
 10
14.52848438
 20
6.85823438
  0
VERTEX
  8
EGA-729.PLT
 62
7
 10
14.48850024
 20
6.83082739
  0
VERTEX
  8
EGA-729.PLT
 62
7
 10
14.44986523
 20
6.80129492
  0
VERTEX
  8
EGA-729.PLT
 62
7
 10
14.41266870
 20
6.76967358
  0
VERTEX
  8
EGA-729.PLT
 62
7
 10
14.37700000
 20
6.73600000
  0
VERTEX
  8
EGA-729.PLT
 62
7
 10
14.37429102
 20
6.79573828
  0
VERTEX
  8
EGA-729.PLT
 62
7
 10
14.36770313
 20
6.85484375
  0
VERTEX
  8
EGA-729.PLT
 62
7
 10
14.35729492
 20
6.91315234
  0
VERTEX
  8
EGA-729.PLT
 62
7
 10
14.34312500
 20
6.97050000
  0
VERTEX
  8
EGA-729.PLT
 62
7
 10
14.32525195
 20
7.02672266
  0
VERTEX
  8
EGA-729.PLT
 62
7
 10
14.30373437
 20
7.08165625
  0
VERTEX
  8
EGA-729.PLT
 62
7
 10
14.27863086
 20
7.13513672
  0
VERTEX
  8
EGA-729.PLT
 62
7
 10
14.25000000
 20
7.18700000
  0
VERTEX
  8
EGA-729.PLT
 62
7
 10
14.20700000
 20
7.18142187
  0
VERTEX
  8
EGA-729.PLT
 62
7
 10
14.16550000
 20
7.16937500
  0
VERTEX
  8
EGA-729.PLT
 62
7
 10
14.12625000
 20
7.15114063
  0
VERTEX
  8
EGA-729.PLT
 62
7
 10
14.09000000
 20
7.12700000
  0
VERTEX
  8
EGA-729.PLT
 62
7
 10
13.98200000
 20
7.22100000
  0
VERTEX
  8
EGA-729.PLT
 62
7
 10
13.95824414
 20
7.23000586
  0
VERTEX
  8
EGA-729.PLT
 62
7
 10
13.93801563
 20
7.24317187
  0
VERTEX
  8
EGA-729.PLT
 62
7
 10
13.92137305
 20
7.25997070
  0
VERTEX
  8
EGA-729.PLT
 62
7
 10
13.90837500
 20
7.27987500
  0
VERTEX
  8
EGA-729.PLT
 62
7
 10
13.89908008
 20
7.30235742
  0
VERTEX
  8
EGA-729.PLT
 62
7
 10
13.89354688
 20
7.32689062
  0
VERTEX
  8
EGA-729.PLT
 62
7
 10
13.89183398
 20
7.35294727
  0
VERTEX
  8
EGA-729.PLT
 62
7
 10
13.89400000
 20
7.38000000
  0
VERTEX
  8
EGA-729.PLT
 62
7
 10
13.89745703
 20
7.39541992
  0
VERTEX
  8
EGA-729.PLT
 62
7
 10
13.90328125
 20
7.41185937
  0
VERTEX
  8
EGA-729.PLT
 62
7
 10
13.91140234
 20
7.42846289
  0
VERTEX
  8
EGA-729.PLT
 62
7
 10
13.92175000
 20
7.44437500
  0
VERTEX
  8
EGA-729.PLT
 62
7
 10
13.93425391
 20
7.45874023
  0
VERTEX
  8
EGA-729.PLT
 62
7
 10
13.94884375
 20
7.47070313
  0
VERTEX
  8
EGA-729.PLT
 62
7
 10
13.96544922
 20
7.47940820
  0
VERTEX
  8
EGA-729.PLT
 62
7
 10
13.98400000
 20
7.48400000
  0
VERTEX
  8
EGA-729.PLT
 62
7
 10
13.95689063
 20
7.50480273
  0
VERTEX
  8
EGA-729.PLT
 62
7
 10
13.92762500
 20
7.52142187
  0
VERTEX
  8
EGA-729.PLT
 62
7
 10
13.89667187
 20
7.53379883
  0
VERTEX
  8
EGA-729.PLT
 62
7
 10
13.86450000
 20
7.54187500
  0
VERTEX
  8
EGA-729.PLT
 62
7
 10
13.83157813
 20
7.54559180
  0
VERTEX
  8
EGA-729.PLT
 62
7
 10
13.79837500
 20
7.54489062
  0
VERTEX
  8
EGA-729.PLT
 62
7
 10
13.76535937
 20
7.53971289
  0
VERTEX
  8
EGA-729.PLT
 62
7
 10
13.73300000
 20
7.53000000
  0
VERTEX
  8
EGA-729.PLT
 62
7
 10
13.69140796
 20
7.50951392
  0
VERTEX
  8
EGA-729.PLT
 62
7
 10
13.65104492
 20
7.48709570
  0
VERTEX
  8
EGA-729.PLT
 62
7
 10
13.61196802
 20
7.46280542
  0
VERTEX
  8
EGA-729.PLT
 62
7
 10
13.57423438
 20
7.43670313
  0
VERTEX
  8
EGA-729.PLT
 62
7
 10
13.53790112
 20
7.40884888
  0
VERTEX
  8
EGA-729.PLT
 62
7
 10
13.50302539
 20
7.37930273
  0
VERTEX
  8
EGA-729.PLT
 62
7
 10
13.46966431
 20
7.34812476
  0
VERTEX
  8
EGA-729.PLT
 62
7
 10
13.43787500
 20
7.31537500
  0
VERTEX
  8
EGA-729.PLT
 62
7
 10
13.40771460
 20
7.28111353
  0
VERTEX
  8
EGA-729.PLT
 62
7
 10
13.37924023
 20
7.24540039
  0
VERTEX
  8
EGA-729.PLT
 62
7
 10
13.35250903
 20
7.20829565
  0
VERTEX
  8
EGA-729.PLT
 62
7
 10
13.32757813
 20
7.16985937
  0
VERTEX
  8
EGA-729.PLT
 62
7
 10
13.30450464
 20
7.13015161
  0
VERTEX
  8
EGA-729.PLT
 62
7
 10
13.28334570
 20
7.08923242
  0
VERTEX
  8
EGA-729.PLT
 62
7
 10
13.26415845
 20
7.04716187
  0
VERTEX
  8
EGA-729.PLT
 62
7
 10
13.24700000
 20
7.00400000
  0
VERTEX
  8
EGA-729.PLT
 62
7
 10
13.21909375
 20
7.00907813
  0
VERTEX
  8
EGA-729.PLT
 62
7
 10
13.19100000
 20
7.01087500
  0
VERTEX
  8
EGA-729.PLT
 62
7
 10
13.16290625
 20
7.00948438
  0
VERTEX
  8
EGA-729.PLT
 62
7
 10
13.13500000
 20
7.00500000
  0
VERTEX
  8
EGA-729.PLT
 62
7
 10
13.11892188
 20
6.94968750
  0
VERTEX
  8
EGA-729.PLT
 62
7
 10
13.10612500
 20
6.89550000
  0
VERTEX
  8
EGA-729.PLT
 62
7
 10
13.09801563
 20
6.83681250
  0
VERTEX
  8
EGA-729.PLT
 62
7
 10
13.09600000
 20
6.76800000
  0
VERTEX
  8
EGA-729.PLT
 62
7
 10
13.04437500
 20
6.82137500
  0
VERTEX
  8
EGA-729.PLT
 62
7
 10
12.99800000
 20
6.86200000
  0
VERTEX
  8
EGA-729.PLT
 62
7
 10
12.96169531
 20
6.88912305
  0
VERTEX
  8
EGA-729.PLT
 62
7
 10
12.92225000
 20
6.91042187
  0
VERTEX
  8
EGA-729.PLT
 62
7
 10
12.88036719
 20
6.92579102
  0
VERTEX
  8
EGA-729.PLT
 62
7
 10
12.83675000
 20
6.93512500
  0
VERTEX
  8
EGA-729.PLT
 62
7
 10
12.79210156
 20
6.93831836
  0
VERTEX
  8
EGA-729.PLT
 62
7
 10
12.74712500
 20
6.93526563
  0
VERTEX
  8
EGA-729.PLT
 62
7
 10
12.70252344
 20
6.92586133
  0
VERTEX
  8
EGA-729.PLT
 62
7
 10
12.65900000
 20
6.91000000
  0
VERTEX
  8
EGA-729.PLT
 62
7
 10
12.66116406
 20
6.94983594
  0
VERTEX
  8
EGA-729.PLT
 62
7
 10
12.65925000
 20
6.98943750
  0
VERTEX
  8
EGA-729.PLT
 62
7
 10
12.65302344
 20
7.02819531
  0
VERTEX
  8
EGA-729.PLT
 62
7
 10
12.64225000
 20
7.06550000
  0
VERTEX
  8
EGA-729.PLT
 62
7
 10
12.62669531
 20
7.10074219
  0
VERTEX
  8
EGA-729.PLT
 62
7
 10
12.60612500
 20
7.13331250
  0
VERTEX
  8
EGA-729.PLT
 62
7
 10
12.58030469
 20
7.16260156
  0
VERTEX
  8
EGA-729.PLT
 62
7
 10
12.54900000
 20
7.18800000
  0
VERTEX
  8
EGA-729.PLT
 62
7
 10
12.47301563
 20
7.23593750
  0
VERTEX
  8
EGA-729.PLT
 62
7
 10
12.39262500
 20
7.28200000
  0
VERTEX
  8
EGA-729.PLT
 62
7
 10
12.31092188
 20
7.32806250
  0
VERTEX
  8
EGA-729.PLT
 62
7
 10
12.23100000
 20
7.37600000
  0
VERTEX
  8
EGA-729.PLT
 62
7
 10
12.21215820
 20
7.38681445
  0
VERTEX
  8
EGA-729.PLT
 62
7
 10
12.19276563
 20
7.39314063
  0
VERTEX
  8
EGA-729.PLT
 62
7
 10
12.17339648
 20
7.39517773
  0
VERTEX
  8
EGA-729.PLT
 62
7
 10
12.15462500
 20
7.39312500
  0
VERTEX
  8
EGA-729.PLT
 62
7
 10
12.13702539
 20
7.38718164
  0
VERTEX
  8
EGA-729.PLT
 62
7
 10
12.12117188
 20
7.37754688
  0
VERTEX
  8
EGA-729.PLT
 62
7
 10
12.10763867
 20
7.36441992
  0
VERTEX
  8
EGA-729.PLT
 62
7
 10
12.09700000
 20
7.34800000
  0
VERTEX
  8
EGA-729.PLT
 62
7
 10
12.07987500
 20
7.32737500
  0
VERTEX
  8
EGA-729.PLT
 62
7
 10
12.05525000
 20
7.31125000
  0
VERTEX
  8
EGA-729.PLT
 62
7
 10
12.02725000
 20
7.30075000
  0
SEQEND
  0
POLYLINE
  8
EGA-729.PLT
 62
7
 66
1
 70
1
  0
VERTEX
  8
EGA-729.PLT
 62
7
 10
8.30500000
 20
6.09000000
  0
VERTEX
  8
EGA-729.PLT
 62
7
 10
8.33334570
 20
6.08934766
  0
VERTEX
  8
EGA-729.PLT
 62
7
 10
8.36376562
 20
6.08796875
  0
VERTEX
  8
EGA-729.PLT
 62
7
 10
8.39533398
 20
6.08673047
  0
VERTEX
  8
EGA-729.PLT
 62
7
 10
8.42712500
 20
6.08650000
  0
VERTEX
  8
EGA-729.PLT
 62
7
 10
8.45821289
 20
6.08814453
  0
VERTEX
  8
EGA-729.PLT
 62
7
 10
8.48767188
 20
6.09253125
  0
VERTEX
  8
EGA-729.PLT
 62
7
 10
8.51457617
 20
6.10052734
  0
VERTEX
  8
EGA-729.PLT
 62
7
 10
8.53800000
 20
6.11300000
  0
VERTEX
  8
EGA-729.PLT
 62
7
 10
8.54192187
 20
6.05692187
  0
VERTEX
  8
EGA-729.PLT
 62
7
 10
8.55362500
 20
6.00187500
  0
VERTEX
  8
EGA-729.PLT
 62
7
 10
8.57301563
 20
5.94889062
  0
VERTEX
  8
EGA-729.PLT
 62
7
 10
8.60000000
 20
5.89900000
  0
VERTEX
  8
EGA-729.PLT
 62
7
 10
8.60957227
 20
5.86229297
  0
VERTEX
  8
EGA-729.PLT
 62
7
 10
8.61226562
 20
5.82546875
  0
VERTEX
  8
EGA-729.PLT
 62
7
 10
8.60841992
 20
5.78934766
  0
VERTEX
  8
EGA-729.PLT
 62
7
 10
8.59837500
 20
5.75475000
  0
VERTEX
  8
EGA-729.PLT
 62
7
 10
8.58247070
 20
5.72249609
  0
VERTEX
  8
EGA-729.PLT
 62
7
 10
8.56104688
 20
5.69340625
  0
VERTEX
  8
EGA-729.PLT
 62
7
 10
8.53444336
 20
5.66830078
  0
VERTEX
  8
EGA-729.PLT
 62
7
 10
8.50300000
 20
5.64800000
  0
VERTEX
  8
EGA-729.PLT
 62
7
 10
8.53641357
 20
5.65947168
  0
VERTEX
  8
EGA-729.PLT
 62
7
 10
8.57010547
 20
5.66697656
  0
VERTEX
  8
EGA-729.PLT
 62
7
 10
8.60381494
 20
5.67064941
  0
VERTEX
  8
EGA-729.PLT
 62
7
 10
8.63728125
 20
5.67062500
  0
VERTEX
  8
EGA-729.PLT
 62
7
 10
8.67024365
 20
5.66703809
  0
VERTEX
  8
EGA-729.PLT
 62
7
 10
8.70244141
 20
5.66002344
  0
VERTEX
  8
EGA-729.PLT
 62
7
 10
8.73361377
 20
5.64971582
  0
VERTEX
  8
EGA-729.PLT
 62
7
 10
8.76350000
 20
5.63625000
  0
VERTEX
  8
EGA-729.PLT
 62
7
 10
8.79183936
 20
5.61976074
  0
VERTEX
  8
EGA-729.PLT
 62
7
 10
8.81837109
 20
5.60038281
  0
VERTEX
  8
EGA-729.PLT
 62
7
 10
8.84283447
 20
5.57825098
  0
VERTEX
  8
EGA-729.PLT
 62
7
 10
8.86496875
 20
5.55350000
  0
VERTEX
  8
EGA-729.PLT
 62
7
 10
8.88451318
 20
5.52626465
  0
VERTEX
  8
EGA-729.PLT
 62
7
 10
8.90120703
 20
5.49667969
  0
VERTEX
  8
EGA-729.PLT
 62
7
 10
8.91478955
 20
5.46487988
  0
VERTEX
  8
EGA-729.PLT
 62
7
 10
8.92500000
 20
5.43100000
  0
VERTEX
  8
EGA-729.PLT
 62
7
 10
8.93140332
 20
5.39619995
  0
VERTEX
  8
EGA-729.PLT
 62
7
 10
8.93385156
 20
5.36170898
  0
VERTEX
  8
EGA-729.PLT
 62
7
 10
8.93251465
 20
5.32776587
  0
VERTEX
  8
EGA-729.PLT
 62
7
 10
8.92756250
 20
5.29460938
  0
VERTEX
  8
EGA-729.PLT
 62
7
 10
8.91916504
 20
5.26247827
  0
VERTEX
  8
EGA-729.PLT
 62
7
 10
8.90749219
 20
5.23161133
  0
VERTEX
  8
EGA-729.PLT
 62
7
 10
8.89271387
 20
5.20224731
  0
VERTEX
  8
EGA-729.PLT
 62
7
 10
8.87500000
 20
5.17462500
  0
VERTEX
  8
EGA-729.PLT
 62
7
 10
8.85452051
 20
5.14898315
  0
VERTEX
  8
EGA-729.PLT
 62
7
 10
8.83144531
 20
5.12556055
  0
VERTEX
  8
EGA-729.PLT
 62
7
 10
8.80594434
 20
5.10459595
  0
VERTEX
  8
EGA-729.PLT
 62
7
 10
8.77818750
 20
5.08632812
  0
VERTEX
  8
EGA-729.PLT
 62
7
 10
8.74834473
 20
5.07099585
  0
VERTEX
  8
EGA-729.PLT
 62
7
 10
8.71658594
 20
5.05883789
  0
VERTEX
  8
EGA-729.PLT
 62
7
 10
8.68308105
 20
5.05009302
  0
VERTEX
  8
EGA-729.PLT
 62
7
 10
8.64800000
 20
5.04500000
  0
VERTEX
  8
EGA-729.PLT
 62
7
 10
8.66213501
 20
5.06113257
  0
VERTEX
  8
EGA-729.PLT
 62
7
 10
8.67417383
 20
5.07829492
  0
VERTEX
  8
EGA-729.PLT
 62
7
 10
8.68412964
 20
5.09632153
  0
VERTEX
  8
EGA-729.PLT
 62
7
 10
8.69201562
 20
5.11504688
  0
VERTEX
  8
EGA-729.PLT
 62
7
 10
8.69784497
 20
5.13430542
  0
VERTEX
  8
EGA-729.PLT
 62
7
 10
8.70163086
 20
5.15393164
  0
VERTEX
  8
EGA-729.PLT
 62
7
 10
8.70338647
 20
5.17376001
  0
VERTEX
  8
EGA-729.PLT
 62
7
 10
8.70312500
 20
5.19362500
  0
VERTEX
  8
EGA-729.PLT
 62
7
 10
8.70085962
 20
5.21336108
  0
VERTEX
  8
EGA-729.PLT
 62
7
 10
8.69660352
 20
5.23280273
  0
VERTEX
  8
EGA-729.PLT
 62
7
 10
8.69036987
 20
5.25178442
  0
VERTEX
  8
EGA-729.PLT
 62
7
 10
8.68217187
 20
5.27014062
  0
VERTEX
  8
EGA-729.PLT
 62
7
 10
8.67202271
 20
5.28770581
  0
VERTEX
  8
EGA-729.PLT
 62
7
 10
8.65993555
 20
5.30431445
  0
VERTEX
  8
EGA-729.PLT
 62
7
 10
8.64592358
 20
5.31980103
  0
VERTEX
  8
EGA-729.PLT
 62
7
 10
8.63000000
 20
5.33400000
  0
VERTEX
  8
EGA-729.PLT
 62
7
 10
8.61264844
 20
5.34640283
  0
VERTEX
  8
EGA-729.PLT
 62
7
 10
8.59445312
 20
5.35662891
  0
VERTEX
  8
EGA-729.PLT
 62
7
 10
8.57557812
 20
5.36470459
  0
VERTEX
  8
EGA-729.PLT
 62
7
 10
8.55618750
 20
5.37065625
  0
VERTEX
  8
EGA-729.PLT
 62
7
 10
8.53644531
 20
5.37451025
  0
VERTEX
  8
EGA-729.PLT
 62
7
 10
8.51651563
 20
5.37629297
  0
VERTEX
  8
EGA-729.PLT
 62
7
 10
8.49656250
 20
5.37603076
  0
VERTEX
  8
EGA-729.PLT
 62
7
 10
8.47675000
 20
5.37375000
  0
VERTEX
  8
EGA-729.PLT
 62
7
 10
8.45724219
 20
5.36947705
  0
VERTEX
  8
EGA-729.PLT
 62
7
 10
8.43820312
 20
5.36323828
  0
VERTEX
  8
EGA-729.PLT
 62
7
 10
8.41979687
 20
5.35506006
  0
VERTEX
  8
EGA-729.PLT
 62
7
 10
8.40218750
 20
5.34496875
  0
VERTEX
  8
EGA-729.PLT
 62
7
 10
8.38553906
 20
5.33299072
  0
VERTEX
  8
EGA-729.PLT
 62
7
 10
8.37001563
 20
5.31915234
  0
VERTEX
  8
EGA-729.PLT
 62
7
 10
8.35578125
 20
5.30347998
  0
VERTEX
  8
EGA-729.PLT
 62
7
 10
8.34300000
 20
5.28600000
  0
VERTEX
  8
EGA-729.PLT
 62
7
 10
8.29843628
 20
5.23436914
  0
VERTEX
  8
EGA-729.PLT
 62
7
 10
8.25077148
 20
5.18640625
  0
VERTEX
  8
EGA-729.PLT
 62
7
 10
8.20023267
 20
5.14219336
  0
VERTEX
  8
EGA-729.PLT
 62
7
 10
8.14704687
 20
5.10181250
  0
VERTEX
  8
EGA-729.PLT
 62
7
 10
8.09144116
 20
5.06534570
  0
VERTEX
  8
EGA-729.PLT
 62
7
 10
8.03364258
 20
5.03287500
  0
VERTEX
  8
EGA-729.PLT
 62
7
 10
7.97387817
 20
5.00448242
  0
VERTEX
  8
EGA-729.PLT
 62
7
 10
7.91237500
 20
4.98025000
  0
VERTEX
  8
EGA-729.PLT
 62
7
 10
7.84936011
 20
4.96025977
  0
VERTEX
  8
EGA-729.PLT
 62
7
 10
7.78506055
 20
4.94459375
  0
VERTEX
  8
EGA-729.PLT
 62
7
 10
7.71970337
 20
4.93333398
  0
VERTEX
  8
EGA-729.PLT
 62
7
 10
7.65351562
 20
4.92656250
  0
VERTEX
  8
EGA-729.PLT
 62
7
 10
7.58672437
 20
4.92436133
  0
VERTEX
  8
EGA-729.PLT
 62
7
 10
7.51955664
 20
4.92681250
  0
VERTEX
  8
EGA-729.PLT
 62
7
 10
7.45223950
 20
4.93399805
  0
VERTEX
  8
EGA-729.PLT
 62
7
 10
7.38500000
 20
4.94600000
  0
VERTEX
  8
EGA-729.PLT
 62
7
 10
7.31859497
 20
4.96269507
  0
VERTEX
  8
EGA-729.PLT
 62
7
 10
7.25411914
 20
4.98379492
  0
VERTEX
  8
EGA-729.PLT
 62
7
 10
7.19174390
 20
5.00913403
  0
VERTEX
  8
EGA-729.PLT
 62
7
 10
7.13164063
 20
5.03854687
  0
VERTEX
  8
EGA-729.PLT
 62
7
 10
7.07398071
 20
5.07186792
  0
VERTEX
  8
EGA-729.PLT
 62
7
 10
7.01893555
 20
5.10893164
  0
VERTEX
  8
EGA-729.PLT
 62
7
 10
6.96667651
 20
5.14957251
  0
VERTEX
  8
EGA-729.PLT
 62
7
 10
6.91737500
 20
5.19362500
  0
VERTEX
  8
EGA-729.PLT
 62
7
 10
6.87120239
 20
5.24092358
  0
VERTEX
  8
EGA-729.PLT
 62
7
 10
6.82833008
 20
5.29130273
  0
VERTEX
  8
EGA-729.PLT
 62
7
 10
6.78892944
 20
5.34459692
  0
VERTEX
  8
EGA-729.PLT
 62
7
 10
6.75317187
 20
5.40064063
  0
VERTEX
  8
EGA-729.PLT
 62
7
 10
6.72122876
 20
5.45926831
  0
VERTEX
  8
EGA-729.PLT
 62
7
 10
6.69327148
 20
5.52031445
  0
VERTEX
  8
EGA-729.PLT
 62
7
 10
6.66947144
 20
5.58361353
  0
VERTEX
  8
EGA-729.PLT
 62
7
 10
6.65000000
 20
5.64900000
  0
VERTEX
  8
EGA-729.PLT
 62
7
 10
6.58900000
 20
5.68500000
  0
VERTEX
  8
EGA-729.PLT
 62
7
 10
6.58606055
 20
5.65887061
  0
VERTEX
  8
EGA-729.PLT
 62
7
 10
6.58104688
 20
5.63341797
  0
VERTEX
  8
EGA-729.PLT
 62
7
 10
6.57404102
 20
5.60873291
  0
VERTEX
  8
EGA-729.PLT
 62
7
 10
6.56512500
 20
5.58490625
  0
VERTEX
  8
EGA-729.PLT
 62
7
 10
6.55438086
 20
5.56202881
  0
VERTEX
  8
EGA-729.PLT
 62
7
 10
6.54189062
 20
5.54019141
  0
VERTEX
  8
EGA-729.PLT
 62
7
 10
6.52773633
 20
5.51948486
  0
VERTEX
  8
EGA-729.PLT
 62
7
 10
6.51200000
 20
5.50000000
  0
VERTEX
  8
EGA-729.PLT
 62
7
 10
6.49476367
 20
5.48182764
  0
VERTEX
  8
EGA-729.PLT
 62
7
 10
6.47610938
 20
5.46505859
  0
VERTEX
  8
EGA-729.PLT
 62
7
 10
6.45611914
 20
5.44978369
  0
VERTEX
  8
EGA-729.PLT
 62
7
 10
6.43487500
 20
5.43609375
  0
VERTEX
  8
EGA-729.PLT
 62
7
 10
6.41245898
 20
5.42407959
  0
VERTEX
  8
EGA-729.PLT
 62
7
 10
6.38895312
 20
5.41383203
  0
VERTEX
  8
EGA-729.PLT
 62
7
 10
6.36443945
 20
5.40544189
  0
VERTEX
  8
EGA-729.PLT
 62
7
 10
6.33900000
 20
5.39900000
  0
VERTEX
  8
EGA-729.PLT
 62
7
 10
6.29069922
 20
5.39472266
  0
VERTEX
  8
EGA-729.PLT
 62
7
 10
6.24359375
 20
5.38503125
  0
VERTEX
  8
EGA-729.PLT
 62
7
 10
6.19812891
 20
5.37013672
  0
VERTEX
  8
EGA-729.PLT
 62
7
 10
6.15475000
 20
5.35025000
  0
VERTEX
  8
EGA-729.PLT
 62
7
 10
6.11390234
 20
5.32558203
  0
VERTEX
  8
EGA-729.PLT
 62
7
 10
6.07603125
 20
5.29634375
  0
VERTEX
  8
EGA-729.PLT
 62
7
 10
6.04158203
 20
5.26274609
  0
VERTEX
  8
EGA-729.PLT
 62
7
 10
6.01100000
 20
5.22500000
  0
VERTEX
  8
EGA-729.PLT
 62
7
 10
6.00803516
 20
5.26655664
  0
VERTEX
  8
EGA-729.PLT
 62
7
 10
6.00003125
 20
5.30695312
  0
VERTEX
  8
EGA-729.PLT
 62
7
 10
5.98719922
 20
5.34577930
  0
VERTEX
  8
EGA-729.PLT
 62
7
 10
5.96975000
 20
5.38262500
  0
VERTEX
  8
EGA-729.PLT
 62
7
 10
5.94789453
 20
5.41708008
  0
VERTEX
  8
EGA-729.PLT
 62
7
 10
5.92184375
 20
5.44873437
  0
VERTEX
  8
EGA-729.PLT
 62
7
 10
5.89180859
 20
5.47717773
  0
VERTEX
  8
EGA-729.PLT
 62
7
 10
5.85800000
 20
5.50200000
  0
VERTEX
  8
EGA-729.PLT
 62
7
 10
5.83395239
 20
5.52482690
  0
VERTEX
  8
EGA-729.PLT
 62
7
 10
5.81318164
 20
5.54961523
  0
VERTEX
  8
EGA-729.PLT
 62
7
 10
5.79568335
 20
5.57607642
  0
VERTEX
  8
EGA-729.PLT
 62
7
 10
5.78145312
 20
5.60392188
  0
VERTEX
  8
EGA-729.PLT
 62
7
 10
5.77048657
 20
5.63286304
  0
VERTEX
  8
EGA-729.PLT
 62
7
 10
5.76277930
 20
5.66261133
  0
VERTEX
  8
EGA-729.PLT
 62
7
 10
5.75832690
 20
5.69287817
  0
VERTEX
  8
EGA-729.PLT
 62
7
 10
5.75712500
 20
5.72337500
  0
VERTEX
  8
EGA-729.PLT
 62
7
 10
5.75916919
 20
5.75381323
  0
VERTEX
  8
EGA-729.PLT
 62
7
 10
5.76445508
 20
5.78390430
  0
VERTEX
  8
EGA-729.PLT
 62
7
 10
5.77297827
 20
5.81335962
  0
VERTEX
  8
EGA-729.PLT
 62
7
 10
5.78473438
 20
5.84189062
  0
VERTEX
  8
EGA-729.PLT
 62
7
 10
5.79971899
 20
5.86920874
  0
VERTEX
  8
EGA-729.PLT
 62
7
 10
5.81792773
 20
5.89502539
  0
VERTEX
  8
EGA-729.PLT
 62
7
 10
5.83935620
 20
5.91905200
  0
VERTEX
  8
EGA-729.PLT
 62
7
 10
5.86400000
 20
5.94100000
  0
VERTEX
  8
EGA-729.PLT
 62
7
 10
5.80400000
 20
5.96400000
  0
VERTEX
  8
EGA-729.PLT
 62
7
 10
5.50900000
 20
5.74900000
  0
VERTEX
  8
EGA-729.PLT
 62
7
 10
5.43303320
 20
5.71834375
  0
VERTEX
  8
EGA-729.PLT
 62
7
 10
5.35595313
 20
5.69087500
  0
VERTEX
  8
EGA-729.PLT
 62
7
 10
5.27786523
 20
5.66659375
  0
VERTEX
  8
EGA-729.PLT
 62
7
 10
5.19887500
 20
5.64550000
  0
VERTEX
  8
EGA-729.PLT
 62
7
 10
5.11908789
 20
5.62759375
  0
VERTEX
  8
EGA-729.PLT
 62
7
 10
5.03860938
 20
5.61287500
  0
VERTEX
  8
EGA-729.PLT
 62
7
 10
4.95754492
 20
5.60134375
  0
VERTEX
  8
EGA-729.PLT
 62
7
 10
4.87600000
 20
5.59300000
  0
VERTEX
  8
EGA-729.PLT
 62
7
 10
4.82613550
 20
5.59027905
  0
VERTEX
  8
EGA-729.PLT
 62
7
 10
4.77633398
 20
5.58960742
  0
VERTEX
  8
EGA-729.PLT
 62
7
 10
4.72665845
 20
5.59097192
  0
VERTEX
  8
EGA-729.PLT
 62
7
 10
4.67717188
 20
5.59435937
  0
VERTEX
  8
EGA-729.PLT
 62
7
 10
4.62793726
 20
5.59975659
  0
VERTEX
  8
EGA-729.PLT
 62
7
 10
4.57901758
 20
5.60715039
  0
VERTEX
  8
EGA-729.PLT
 62
7
 10
4.53047583
 20
5.61652759
  0
VERTEX
  8
EGA-729.PLT
 62
7
 10
4.48237500
 20
5.62787500
  0
VERTEX
  8
EGA-729.PLT
 62
7
 10
4.43477808
 20
5.64117944
  0
VERTEX
  8
EGA-729.PLT
 62
7
 10
4.38774805
 20
5.65642773
  0
VERTEX
  8
EGA-729.PLT
 62
7
 10
4.34134790
 20
5.67360669
  0
VERTEX
  8
EGA-729.PLT
 62
7
 10
4.29564062
 20
5.69270313
  0
VERTEX
  8
EGA-729.PLT
 62
7
 10
4.25068921
 20
5.71370386
  0
VERTEX
  8
EGA-729.PLT
 62
7
 10
4.20655664
 20
5.73659570
  0
VERTEX
  8
EGA-729.PLT
 62
7
 10
4.16330591
 20
5.76136548
  0
VERTEX
  8
EGA-729.PLT
 62
7
 10
4.12100000
 20
5.78800000
  0
VERTEX
  8
EGA-729.PLT
 62
7
 10
4.05768555
 20
5.83041406
  0
VERTEX
  8
EGA-729.PLT
 62
7
 10
3.99604688
 20
5.87512500
  0
VERTEX
  8
EGA-729.PLT
 62
7
 10
3.93616602
 20
5.92208594
  0
VERTEX
  8
EGA-729.PLT
 62
7
 10
3.87812500
 20
5.97125000
  0
VERTEX
  8
EGA-729.PLT
 62
7
 10
3.82200586
 20
6.02257031
  0
VERTEX
  8
EGA-729.PLT
 62
7
 10
3.76789063
 20
6.07600000
  0
VERTEX
  8
EGA-729.PLT
 62
7
 10
3.71586133
 20
6.13149219
  0
VERTEX
  8
EGA-729.PLT
 62
7
 10
3.66600000
 20
6.18900000
  0
VERTEX
  8
EGA-729.PLT
 62
7
 10
3.65464453
 20
6.20959766
  0
VERTEX
  8
EGA-729.PLT
 62
7
 10
3.64096875
 20
6.22853125
  0
VERTEX
  8
EGA-729.PLT
 62
7
 10
3.62518359
 20
6.24563672
  0
VERTEX
  8
EGA-729.PLT
 62
7
 10
3.60750000
 20
6.26075000
  0
VERTEX
  8
EGA-729.PLT
 62
7
 10
3.58812891
 20
6.27370703
  0
VERTEX
  8
EGA-729.PLT
 62
7
 10
3.56728125
 20
6.28434375
  0
VERTEX
  8
EGA-729.PLT
 62
7
 10
3.54516797
 20
6.29249609
  0
VERTEX
  8
EGA-729.PLT
 62
7
 10
3.52200000
 20
6.29800000
  0
VERTEX
  8
EGA-729.PLT
 62
7
 10
3.49832617
 20
6.30030859
  0
VERTEX
  8
EGA-729.PLT
 62
7
 10
3.47473438
 20
6.29978125
  0
VERTEX
  8
EGA-729.PLT
 62
7
 10
3.45149414
 20
6.29648828
  0
VERTEX
  8
EGA-729.PLT
 62
7
 10
3.42887500
 20
6.29050000
  0
VERTEX
  8
EGA-729.PLT
 62
7
 10
3.40714648
 20
6.28188672
  0
VERTEX
  8
EGA-729.PLT
 62
7
 10
3.38657813
 20
6.27071875
  0
VERTEX
  8
EGA-729.PLT
 62
7
 10
3.36743945
 20
6.25706641
  0
VERTEX
  8
EGA-729.PLT
 62
7
 10
3.35000000
 20
6.24100000
  0
VERTEX
  8
EGA-729.PLT
 62
7
 10
3.33431055
 20
6.22323047
  0
VERTEX
  8
EGA-729.PLT
 62
7
 10
3.32104688
 20
6.20384375
  0
VERTEX
  8
EGA-729.PLT
 62
7
 10
3.31029102
 20
6.18309766
  0
VERTEX
  8
EGA-729.PLT
 62
7
 10
3.30212500
 20
6.16125000
  0
VERTEX
  8
EGA-729.PLT
 62
7
 10
3.29663086
 20
6.13855859
  0
VERTEX
  8
EGA-729.PLT
 62
7
 10
3.29389063
 20
6.11528125
  0
VERTEX
  8
EGA-729.PLT
 62
7
 10
3.29398633
 20
6.09167578
  0
VERTEX
  8
EGA-729.PLT
 62
7
 10
3.29700000
 20
6.06800000
  0
VERTEX
  8
EGA-729.PLT
 62
7
 10
3.30287891
 20
6.04487695
  0
VERTEX
  8
EGA-729.PLT
 62
7
 10
3.31140625
 20
6.02289062
  0
VERTEX
  8
EGA-729.PLT
 62
7
 10
3.32241797
 20
6.00224023
  0
VERTEX
  8
EGA-729.PLT
 62
7
 10
3.33575000
 20
5.98312500
  0
VERTEX
  8
EGA-729.PLT
 62
7
 10
3.35123828
 20
5.96574414
  0
VERTEX
  8
EGA-729.PLT
 62
7
 10
3.36871875
 20
5.95029688
  0
VERTEX
  8
EGA-729.PLT
 62
7
 10
3.38802734
 20
5.93698242
  0
VERTEX
  8
EGA-729.PLT
 62
7
 10
3.40900000
 20
5.92600000
  0
VERTEX
  8
EGA-729.PLT
 62
7
 10
3.37450879
 20
5.92131519
  0
VERTEX
  8
EGA-729.PLT
 62
7
 10
3.34011719
 20
5.91922461
  0
VERTEX
  8
EGA-729.PLT
 62
7
 10
3.30594824
 20
5.91967407
  0
VERTEX
  8
EGA-729.PLT
 62
7
 10
3.27212500
 20
5.92260938
  0
VERTEX
  8
EGA-729.PLT
 62
7
 10
3.23877051
 20
5.92797632
  0
VERTEX
  8
EGA-729.PLT
 62
7
 10
3.20600781
 20
5.93572070
  0
VERTEX
  8
EGA-729.PLT
 62
7
 10
3.17395996
 20
5.94578833
  0
VERTEX
  8
EGA-729.PLT
 62
7
 10
3.14275000
 20
5.95812500
  0
VERTEX
  8
EGA-729.PLT
 62
7
 10
3.11250098
 20
5.97267651
  0
VERTEX
  8
EGA-729.PLT
 62
7
 10
3.08333594
 20
5.98938867
  0
VERTEX
  8
EGA-729.PLT
 62
7
 10
3.05537793
 20
6.00820728
  0
VERTEX
  8
EGA-729.PLT
 62
7
 10
3.02875000
 20
6.02907812
  0
VERTEX
  8
EGA-729.PLT
 62
7
 10
3.00357520
 20
6.05194702
  0
VERTEX
  8
EGA-729.PLT
 62
7
 10
2.97997656
 20
6.07675977
  0
VERTEX
  8
EGA-729.PLT
 62
7
 10
2.95807715
 20
6.10346216
  0
VERTEX
  8
EGA-729.PLT
 62
7
 10
2.93800000
 20
6.13200000
  0
VERTEX
  8
EGA-729.PLT
 62
7
 10
2.91920337
 20
6.16838916
  0
VERTEX
  8
EGA-729.PLT
 62
7
 10
2.90439258
 20
6.20575391
  0
VERTEX
  8
EGA-729.PLT
 62
7
 10
2.89349878
 20
6.24382764
  0
VERTEX
  8
EGA-729.PLT
 62
7
 10
2.88645313
 20
6.28234375
  0
VERTEX
  8
EGA-729.PLT
 62
7
 10
2.88318677
 20
6.32103564
  0
VERTEX
  8
EGA-729.PLT
 62
7
 10
2.88363086
 20
6.35963672
  0
VERTEX
  8
EGA-729.PLT
 62
7
 10
2.88771655
 20
6.39788037
  0
VERTEX
  8
EGA-729.PLT
 62
7
 10
2.89537500
 20
6.43550000
  0
VERTEX
  8
EGA-729.PLT
 62
7
 10
2.90653735
 20
6.47222900
  0
VERTEX
  8
EGA-729.PLT
 62
7
 10
2.92113477
 20
6.50780078
  0
VERTEX
  8
EGA-729.PLT
 62
7
 10
2.93909839
 20
6.54194873
  0
VERTEX
  8
EGA-729.PLT
 62
7
 10
2.96035937
 20
6.57440625
  0
VERTEX
  8
EGA-729.PLT
 62
7
 10
2.98484888
 20
6.60490674
  0
VERTEX
  8
EGA-729.PLT
 62
7
 10
3.01249805
 20
6.63318359
  0
VERTEX
  8
EGA-729.PLT
 62
7
 10
3.04323804
 20
6.65897021
  0
VERTEX
  8
EGA-729.PLT
 62
7
 10
3.07700000
 20
6.68200000
  0
VERTEX
  8
EGA-729.PLT
 62
7
 10
3.10727905
 20
6.70116553
  0
VERTEX
  8
EGA-729.PLT
 62
7
 10
3.13871680
 20
6.71705859
  0
VERTEX
  8
EGA-729.PLT
 62
7
 10
3.17108911
 20
6.72971143
  0
VERTEX
  8
EGA-729.PLT
 62
7
 10
3.20417188
 20
6.73915625
  0
VERTEX
  8
EGA-729.PLT
 62
7
 10
3.23774097
 20
6.74542529
  0
VERTEX
  8
EGA-729.PLT
 62
7
 10
3.27157227
 20
6.74855078
  0
VERTEX
  8
EGA-729.PLT
 62
7
 10
3.30544165
 20
6.74856494
  0
VERTEX
  8
EGA-729.PLT
 62
7
 10
3.33912500
 20
6.74550000
  0
VERTEX
  8
EGA-729.PLT
 62
7
 10
3.37239819
 20
6.73938818
  0
VERTEX
  8
EGA-729.PLT
 62
7
 10
3.40503711
 20
6.73026172
  0
VERTEX
  8
EGA-729.PLT
 62
7
 10
3.43681763
 20
6.71815283
  0
VERTEX
  8
EGA-729.PLT
 62
7
 10
3.46751562
 20
6.70309375
  0
VERTEX
  8
EGA-729.PLT
 62
7
 10
3.49690698
 20
6.68511670
  0
VERTEX
  8
EGA-729.PLT
 62
7
 10
3.52476758
 20
6.66425391
  0
VERTEX
  8
EGA-729.PLT
 62
7
 10
3.55087329
 20
6.64053760
  0
VERTEX
  8
EGA-729.PLT
 62
7
 10
3.57500000
 20
6.61400000
  0
VERTEX
  8
EGA-729.PLT
 62
7
 10
3.61100000
 20
6.62500000
  0
VERTEX
  8
EGA-729.PLT
 62
7
 10
3.59858618
 20
6.64493188
  0
VERTEX
  8
EGA-729.PLT
 62
7
 10
3.58833008
 20
6.66562695
  0
VERTEX
  8
EGA-729.PLT
 62
7
 10
3.58020972
 20
6.68693433
  0
VERTEX
  8
EGA-729.PLT
 62
7
 10
3.57420312
 20
6.70870313
  0
VERTEX
  8
EGA-729.PLT
 62
7
 10
3.57028833
 20
6.73078247
  0
VERTEX
  8
EGA-729.PLT
 62
7
 10
3.56844336
 20
6.75302148
  0
VERTEX
  8
EGA-729.PLT
 62
7
 10
3.56864624
 20
6.77526929
  0
VERTEX
  8
EGA-729.PLT
 62
7
 10
3.57087500
 20
6.79737500
  0
VERTEX
  8
EGA-729.PLT
 62
7
 10
3.57510767
 20
6.81918774
  0
VERTEX
  8
EGA-729.PLT
 62
7
 10
3.58132227
 20
6.84055664
  0
VERTEX
  8
EGA-729.PLT
 62
7
 10
3.58949683
 20
6.86133081
  0
VERTEX
  8
EGA-729.PLT
 62
7
 10
3.59960938
 20
6.88135937
  0
VERTEX
  8
EGA-729.PLT
 62
7
 10
3.61163794
 20
6.90049146
  0
VERTEX
  8
EGA-729.PLT
 62
7
 10
3.62556055
 20
6.91857617
  0
VERTEX
  8
EGA-729.PLT
 62
7
 10
3.64135522
 20
6.93546265
  0
VERTEX
  8
EGA-729.PLT
 62
7
 10
3.65900000
 20
6.95100000
  0
VERTEX
  8
EGA-729.PLT
 62
7
 10
3.68740820
 20
6.96004492
  0
VERTEX
  8
EGA-729.PLT
 62
7
 10
3.71395313
 20
6.97273437
  0
VERTEX
  8
EGA-729.PLT
 62
7
 10
3.73836523
 20
6.98877539
  0
VERTEX
  8
EGA-729.PLT
 62
7
 10
3.76037500
 20
7.00787500
  0
VERTEX
  8
EGA-729.PLT
 62
7
 10
3.77971289
 20
7.02974023
  0
VERTEX
  8
EGA-729.PLT
 62
7
 10
3.79610937
 20
7.05407813
  0
VERTEX
  8
EGA-729.PLT
 62
7
 10
3.80929492
 20
7.08059570
  0
VERTEX
  8
EGA-729.PLT
 62
7
 10
3.81900000
 20
7.10900000
  0
VERTEX
  8
EGA-729.PLT
 62
7
 10
3.83166016
 20
7.08601562
  0
VERTEX
  8
EGA-729.PLT
 62
7
 10
3.84696875
 20
7.06518750
  0
VERTEX
  8
EGA-729.PLT
 62
7
 10
3.86466797
 20
7.04670312
  0
VERTEX
  8
EGA-729.PLT
 62
7
 10
3.88450000
 20
7.03075000
  0
VERTEX
  8
EGA-729.PLT
 62
7
 10
3.90620703
 20
7.01751562
  0
VERTEX
  8
EGA-729.PLT
 62
7
 10
3.92953125
 20
7.00718750
  0
VERTEX
  8
EGA-729.PLT
 62
7
 10
3.95421484
 20
6.99995313
  0
VERTEX
  8
EGA-729.PLT
 62
7
 10
3.98000000
 20
6.99600000
  0
VERTEX
  8
EGA-729.PLT
 62
7
 10
4.00075000
 20
6.98831250
  0
VERTEX
  8
EGA-729.PLT
 62
7
 10
4.02225000
 20
6.98325000
  0
VERTEX
  8
EGA-729.PLT
 62
7
 10
4.04412500
 20
6.98081250
  0
VERTEX
  8
EGA-729.PLT
 62
7
 10
4.06600000
 20
6.98100000
  0
VERTEX
  8
EGA-729.PLT
 62
7
 10
4.08935571
 20
6.97120093
  0
VERTEX
  8
EGA-729.PLT
 62
7
 10
4.11137695
 20
6.95951367
  0
VERTEX
  8
EGA-729.PLT
 62
7
 10
4.13199487
 20
6.94606567
  0
VERTEX
  8
EGA-729.PLT
 62
7
 10
4.15114063
 20
6.93098438
  0
VERTEX
  8
EGA-729.PLT
 62
7
 10
4.16874536
 20
6.91439722
  0
VERTEX
  8
EGA-729.PLT
 62
7
 10
4.18474023
 20
6.89643164
  0
VERTEX
  8
EGA-729.PLT
 62
7
 10
4.19905640
 20
6.87721509
  0
VERTEX
  8
EGA-729.PLT
 62
7
 10
4.21162500
 20
6.85687500
  0
VERTEX
  8
EGA-729.PLT
 62
7
 10
4.22237720
 20
6.83553882
  0
VERTEX
  8
EGA-729.PLT
 62
7
 10
4.23124414
 20
6.81333398
  0
VERTEX
  8
EGA-729.PLT
 62
7
 10
4.23815698
 20
6.79038794
  0
VERTEX
  8
EGA-729.PLT
 62
7
 10
4.24304688
 20
6.76682813
  0
VERTEX
  8
EGA-729.PLT
 62
7
 10
4.24584497
 20
6.74278198
  0
VERTEX
  8
EGA-729.PLT
 62
7
 10
4.24648242
 20
6.71837695
  0
VERTEX
  8
EGA-729.PLT
 62
7
 10
4.24489038
 20
6.69374048
  0
VERTEX
  8
EGA-729.PLT
 62
7
 10
4.24100000
 20
6.66900000
  0
VERTEX
  8
EGA-729.PLT
 62
7
 10
4.30100000
 20
6.70300000
  0
VERTEX
  8
EGA-729.PLT
 62
7
 10
4.31034644
 20
6.73924097
  0
VERTEX
  8
EGA-729.PLT
 62
7
 10
4.32219336
 20
6.77439648
  0
VERTEX
  8
EGA-729.PLT
 62
7
 10
4.33643970
 20
6.80836548
  0
VERTEX
  8
EGA-729.PLT
 62
7
 10
4.35298438
 20
6.84104688
  0
VERTEX
  8
EGA-729.PLT
 62
7
 10
4.37172632
 20
6.87233960
  0
VERTEX
  8
EGA-729.PLT
 62
7
 10
4.39256445
 20
6.90214258
  0
VERTEX
  8
EGA-729.PLT
 62
7
 10
4.41539771
 20
6.93035474
  0
VERTEX
  8
EGA-729.PLT
 62
7
 10
4.44012500
 20
6.95687500
  0
VERTEX
  8
EGA-729.PLT
 62
7
 10
4.46664526
 20
6.98160229
  0
VERTEX
  8
EGA-729.PLT
 62
7
 10
4.49485742
 20
7.00443555
  0
VERTEX
  8
EGA-729.PLT
 62
7
 10
4.52466040
 20
7.02527368
  0
VERTEX
  8
EGA-729.PLT
 62
7
 10
4.55595313
 20
7.04401563
  0
VERTEX
  8
EGA-729.PLT
 62
7
 10
4.58863452
 20
7.06056030
  0
VERTEX
  8
EGA-729.PLT
 62
7
 10
4.62260352
 20
7.07480664
  0
VERTEX
  8
EGA-729.PLT
 62
7
 10
4.65775903
 20
7.08665356
  0
VERTEX
  8
EGA-729.PLT
 62
7
 10
4.69400000
 20
7.09600000
  0
VERTEX
  8
EGA-729.PLT
 62
7
 10
4.73098633
 20
7.10268750
  0
VERTEX
  8
EGA-729.PLT
 62
7
 10
4.76798438
 20
7.10665625
  0
VERTEX
  8
EGA-729.PLT
 62
7
 10
4.80486523
 20
7.10795312
  0
VERTEX
  8
EGA-729.PLT
 62
7
 10
4.84150000
 20
7.10662500
  0
VERTEX
  8
EGA-729.PLT
 62
7
 10
4.87775977
 20
7.10271875
  0
VERTEX
  8
EGA-729.PLT
 62
7
 10
4.91351562
 20
7.09628125
  0
VERTEX
  8
EGA-729.PLT
 62
7
 10
4.94863867
 20
7.08735938
  0
VERTEX
  8
EGA-729.PLT
 62
7
 10
4.98300000
 20
7.07600000
  0
VERTEX
  8
EGA-729.PLT
 62
7
 10
5.01647070
 20
7.06225000
  0
VERTEX
  8
EGA-729.PLT
 62
7
 10
5.04892187
 20
7.04615625
  0
VERTEX
  8
EGA-729.PLT
 62
7
 10
5.08022461
 20
7.02776562
  0
VERTEX
  8
EGA-729.PLT
 62
7
 10
5.11025000
 20
7.00712500
  0
VERTEX
  8
EGA-729.PLT
 62
7
 10
5.13886914
 20
6.98428125
  0
VERTEX
  8
EGA-729.PLT
 62
7
 10
5.16595312
 20
6.95928125
  0
VERTEX
  8
EGA-729.PLT
 62
7
 10
5.19137305
 20
6.93217187
  0
VERTEX
  8
EGA-729.PLT
 62
7
 10
5.21500000
 20
6.90300000
  0
VERTEX
  8
EGA-729.PLT
 62
7
 10
5.24513086
 20
6.86587964
  0
VERTEX
  8
EGA-729.PLT
 62
7
 10
5.27103125
 20
6.82672461
  0
VERTEX
  8
EGA-729.PLT
 62
7
 10
5.29271289
 20
6.78584399
  0
VERTEX
  8
EGA-729.PLT
 62
7
 10
5.31018750
 20
6.74354687
  0
VERTEX
  8
EGA-729.PLT
 62
7
 10
5.32346680
 20
6.70014233
  0
VERTEX
  8
EGA-729.PLT
 62
7
 10
5.33256250
 20
6.65593945
  0
VERTEX
  8
EGA-729.PLT
 62
7
 10
5.33748633
 20
6.61124731
  0
VERTEX
  8
EGA-729.PLT
 62
7
 10
5.33825000
 20
6.56637500
  0
VERTEX
  8
EGA-729.PLT
 62
7
 10
5.33486523
 20
6.52163159
  0
VERTEX
  8
EGA-729.PLT
 62
7
 10
5.32734375
 20
6.47732617
  0
VERTEX
  8
EGA-729.PLT
 62
7
 10
5.31569727
 20
6.43376782
  0
VERTEX
  8
EGA-729.PLT
 62
7
 10
5.29993750
 20
6.39126563
  0
VERTEX
  8
EGA-729.PLT
 62
7
 10
5.28007617
 20
6.35012866
  0
VERTEX
  8
EGA-729.PLT
 62
7
 10
5.25612500
 20
6.31066602
  0
VERTEX
  8
EGA-729.PLT
 62
7
 10
5.22809570
 20
6.27318677
  0
VERTEX
  8
EGA-729.PLT
 62
7
 10
5.19600000
 20
6.23800000
  0
VERTEX
  8
EGA-729.PLT
 62
7
 10
5.17290039
 20
6.20648633
  0
VERTEX
  8
EGA-729.PLT
 62
7
 10
5.14657812
 20
6.17807812
  0
VERTEX
  8
EGA-729.PLT
 62
7
 10
5.11737305
 20
6.15297461
  0
VERTEX
  8
EGA-729.PLT
 62
7
 10
5.08562500
 20
6.13137500
  0
VERTEX
  8
EGA-729.PLT
 62
7
 10
5.05167383
 20
6.11347852
  0
VERTEX
  8
EGA-729.PLT
 62
7
 10
5.01585937
 20
6.09948438
  0
VERTEX
  8
EGA-729.PLT
 62
7
 10
4.97852148
 20
6.08959180
  0
VERTEX
  8
EGA-729.PLT
 62
7
 10
4.94000000
 20
6.08400000
  0
VERTEX
  8
EGA-729.PLT
 62
7
 10
4.90077734
 20
6.08289844
  0
VERTEX
  8
EGA-729.PLT
 62
7
 10
4.86209375
 20
6.08625000
  0
VERTEX
  8
EGA-729.PLT
 62
7
 10
4.82430078
 20
6.09391406
  0
VERTEX
  8
EGA-729.PLT
 62
7
 10
4.78775000
 20
6.10575000
  0
VERTEX
  8
EGA-729.PLT
 62
7
 10
4.75279297
 20
6.12161719
  0
VERTEX
  8
EGA-729.PLT
 62
7
 10
4.71978125
 20
6.14137500
  0
VERTEX
  8
EGA-729.PLT
 62
7
 10
4.68906641
 20
6.16488281
  0
VERTEX
  8
EGA-729.PLT
 62
7
 10
4.66100000
 20
6.19200000
  0
VERTEX
  8
EGA-729.PLT
 62
7
 10
4.64941992
 20
6.21398242
  0
VERTEX
  8
EGA-729.PLT
 62
7
 10
4.64092188
 20
6.23698437
  0
VERTEX
  8
EGA-729.PLT
 62
7
 10
4.63549414
 20
6.26071289
  0
VERTEX
  8
EGA-729.PLT
 62
7
 10
4.63312500
 20
6.28487500
  0
VERTEX
  8
EGA-729.PLT
 62
7
 10
4.63380273
 20
6.30917773
  0
VERTEX
  8
EGA-729.PLT
 62
7
 10
4.63751562
 20
6.33332813
  0
VERTEX
  8
EGA-729.PLT
 62
7
 10
4.64425195
 20
6.35703320
  0
VERTEX
  8
EGA-729.PLT
 62
7
 10
4.65400000
 20
6.38000000
  0
VERTEX
  8
EGA-729.PLT
 62
7
 10
4.66656641
 20
6.40120313
  0
VERTEX
  8
EGA-729.PLT
 62
7
 10
4.68159375
 20
6.42043750
  0
VERTEX
  8
EGA-729.PLT
 62
7
 10
4.69882422
 20
6.43751562
  0
VERTEX
  8
EGA-729.PLT
 62
7
 10
4.71800000
 20
6.45225000
  0
VERTEX
  8
EGA-729.PLT
 62
7
 10
4.73886328
 20
6.46445313
  0
VERTEX
  8
EGA-729.PLT
 62
7
 10
4.76115625
 20
6.47393750
  0
VERTEX
  8
EGA-729.PLT
 62
7
 10
4.78462109
 20
6.48051562
  0
VERTEX
  8
EGA-729.PLT
 62
7
 10
4.80900000
 20
6.48400000
  0
VERTEX
  8
EGA-729.PLT
 62
7
 10
4.79483203
 20
6.47811328
  0
VERTEX
  8
EGA-729.PLT
 62
7
 10
4.78246875
 20
6.46971875
  0
VERTEX
  8
EGA-729.PLT
 62
7
 10
4.77212109
 20
6.45921484
  0
VERTEX
  8
EGA-729.PLT
 62
7
 10
4.76400000
 20
6.44700000
  0
VERTEX
  8
EGA-729.PLT
 62
7
 10
4.75831641
 20
6.43347266
  0
VERTEX
  8
EGA-729.PLT
 62
7
 10
4.75528125
 20
6.41903125
  0
VERTEX
  8
EGA-729.PLT
 62
7
 10
4.75510547
 20
6.40407422
  0
VERTEX
  8
EGA-729.PLT
 62
7
 10
4.75800000
 20
6.38900000
  0
VERTEX
  8
EGA-729.PLT
 62
7
 10
4.76351563
 20
6.37445703
  0
VERTEX
  8
EGA-729.PLT
 62
7
 10
4.77156250
 20
6.36171875
  0
VERTEX
  8
EGA-729.PLT
 62
7
 10
4.78176563
 20
6.35099609
  0
VERTEX
  8
EGA-729.PLT
 62
7
 10
4.79375000
 20
6.34250000
  0
VERTEX
  8
EGA-729.PLT
 62
7
 10
4.80714062
 20
6.33644141
  0
VERTEX
  8
EGA-729.PLT
 62
7
 10
4.82156250
 20
6.33303125
  0
VERTEX
  8
EGA-729.PLT
 62
7
 10
4.83664063
 20
6.33248047
  0
VERTEX
  8
EGA-729.PLT
 62
7
 10
4.85200000
 20
6.33500000
  0
VERTEX
  8
EGA-729.PLT
 62
7
 10
4.87224219
 20
6.34027344
  0
VERTEX
  8
EGA-729.PLT
 62
7
 10
4.89075000
 20
6.34906250
  0
VERTEX
  8
EGA-729.PLT
 62
7
 10
4.90719531
 20
6.36094531
  0
VERTEX
  8
EGA-729.PLT
 62
7
 10
4.92125000
 20
6.37550000
  0
VERTEX
  8
EGA-729.PLT
 62
7
 10
4.93258594
 20
6.39230469
  0
VERTEX
  8
EGA-729.PLT
 62
7
 10
4.94087500
 20
6.41093750
  0
VERTEX
  8
EGA-729.PLT
 62
7
 10
4.94578906
 20
6.43097656
  0
VERTEX
  8
EGA-729.PLT
 62
7
 10
4.94700000
 20
6.45200000
  0
VERTEX
  8
EGA-729.PLT
 62
7
 10
4.94429492
 20
6.47317383
  0
VERTEX
  8
EGA-729.PLT
 62
7
 10
4.93792187
 20
6.49295312
  0
VERTEX
  8
EGA-729.PLT
 62
7
 10
4.92824414
 20
6.51097461
  0
VERTEX
  8
EGA-729.PLT
 62
7
 10
4.91562500
 20
6.52687500
  0
VERTEX
  8
EGA-729.PLT
 62
7
 10
4.90042773
 20
6.54029102
  0
VERTEX
  8
EGA-729.PLT
 62
7
 10
4.88301562
 20
6.55085937
  0
VERTEX
  8
EGA-729.PLT
 62
7
 10
4.86375195
 20
6.55821680
  0
VERTEX
  8
EGA-729.PLT
 62
7
 10
4.84300000
 20
6.56200000
  0
VERTEX
  8
EGA-729.PLT
 62
7
 10
4.81417188
 20
6.56211279
  0
VERTEX
  8
EGA-729.PLT
 62
7
 10
4.78590625
 20
6.55952734
  0
VERTEX
  8
EGA-729.PLT
 62
7
 10
4.75834375
 20
6.55435791
  0
VERTEX
  8
EGA-729.PLT
 62
7
 10
4.73162500
 20
6.54671875
  0
VERTEX
  8
EGA-729.PLT
 62
7
 10
4.70589063
 20
6.53672412
  0
VERTEX
  8
EGA-729.PLT
 62
7
 10
4.68128125
 20
6.52448828
  0
VERTEX
  8
EGA-729.PLT
 62
7
 10
4.65793750
 20
6.51012549
  0
VERTEX
  8
EGA-729.PLT
 62
7
 10
4.63600000
 20
6.49375000
  0
VERTEX
  8
EGA-729.PLT
 62
7
 10
4.61560938
 20
6.47547607
  0
VERTEX
  8
EGA-729.PLT
 62
7
 10
4.59690625
 20
6.45541797
  0
VERTEX
  8
EGA-729.PLT
 62
7
 10
4.58003125
 20
6.43368994
  0
VERTEX
  8
EGA-729.PLT
 62
7
 10
4.56512500
 20
6.41040625
  0
VERTEX
  8
EGA-729.PLT
 62
7
 10
4.55232812
 20
6.38568115
  0
VERTEX
  8
EGA-729.PLT
 62
7
 10
4.54178125
 20
6.35962891
  0
VERTEX
  8
EGA-729.PLT
 62
7
 10
4.53362500
 20
6.33236377
  0
VERTEX
  8
EGA-729.PLT
 62
7
 10
4.52800000
 20
6.30400000
  0
VERTEX
  8
EGA-729.PLT
 62
7
 10
4.52507764
 20
6.27523193
  0
VERTEX
  8
EGA-729.PLT
 62
7
 10
4.52487109
 20
6.24677734
  0
VERTEX
  8
EGA-729.PLT
 62
7
 10
4.52728369
 20
6.21878564
  0
VERTEX
  8
EGA-729.PLT
 62
7
 10
4.53221875
 20
6.19140625
  0
VERTEX
  8
EGA-729.PLT
 62
7
 10
4.53957959
 20
6.16478857
  0
VERTEX
  8
EGA-729.PLT
 62
7
 10
4.54926953
 20
6.13908203
  0
VERTEX
  8
EGA-729.PLT
 62
7
 10
4.56119189
 20
6.11443604
  0
VERTEX
  8
EGA-729.PLT
 62
7
 10
4.57525000
 20
6.09100000
  0
VERTEX
  8
EGA-729.PLT
 62
7
 10
4.59134717
 20
6.06892334
  0
VERTEX
  8
EGA-729.PLT
 62
7
 10
4.60938672
 20
6.04835547
  0
VERTEX
  8
EGA-729.PLT
 62
7
 10
4.62927197
 20
6.02944580
  0
VERTEX
  8
EGA-729.PLT
 62
7
 10
4.65090625
 20
6.01234375
  0
VERTEX
  8
EGA-729.PLT
 62
7
 10
4.67419287
 20
5.99719873
  0
VERTEX
  8
EGA-729.PLT
 62
7
 10
4.69903516
 20
5.98416016
  0
VERTEX
  8
EGA-729.PLT
 62
7
 10
4.72533643
 20
5.97337744
  0
VERTEX
  8
EGA-729.PLT
 62
7
 10
4.75300000
 20
5.96500000
  0
VERTEX
  8
EGA-729.PLT
 62
7
 10
4.75200000
 20
5.96500000
  0
VERTEX
  8
EGA-729.PLT
 62
7
 10
4.79491602
 20
5.95773633
  0
VERTEX
  8
EGA-729.PLT
 62
7
 10
4.83807813
 20
5.95320312
  0
VERTEX
  8
EGA-729.PLT
 62
7
 10
4.88135742
 20
5.95141211
  0
VERTEX
  8
EGA-729.PLT
 62
7
 10
4.92462500
 20
5.95237500
  0
VERTEX
  8
EGA-729.PLT
 62
7
 10
4.96775195
 20
5.95610352
  0
VERTEX
  8
EGA-729.PLT
 62
7
 10
5.01060937
 20
5.96260938
  0
VERTEX
  8
EGA-729.PLT
 62
7
 10
5.05306836
 20
5.97190430
  0
VERTEX
  8
EGA-729.PLT
 62
7
 10
5.09500000
 20
5.98400000
  0
VERTEX
  8
EGA-729.PLT
 62
7
 10
5.14913892
 20
5.99637720
  0
VERTEX
  8
EGA-729.PLT
 62
7
 10
5.20237695
 20
6.01134570
  0
VERTEX
  8
EGA-729.PLT
 62
7
 10
5.25463354
 20
6.02884839
  0
VERTEX
  8
EGA-729.PLT
 62
7
 10
5.30582812
 20
6.04882813
  0
VERTEX
  8
EGA-729.PLT
 62
7
 10
5.35588013
 20
6.07122778
  0
VERTEX
  8
EGA-729.PLT
 62
7
 10
5.40470898
 20
6.09599023
  0
VERTEX
  8
EGA-729.PLT
 62
7
 10
5.45223413
 20
6.12305835
  0
VERTEX
  8
EGA-729.PLT
 62
7
 10
5.49837500
 20
6.15237500
  0
VERTEX
  8
EGA-729.PLT
 62
7
 10
5.54305103
 20
6.18388306
  0
VERTEX
  8
EGA-729.PLT
 62
7
 10
5.58618164
 20
6.21752539
  0
VERTEX
  8
EGA-729.PLT
 62
7
 10
5.62768628
 20
6.25324487
  0
VERTEX
  8
EGA-729.PLT
 62
7
 10
5.66748437
 20
6.29098437
  0
VERTEX
  8
EGA-729.PLT
 62
7
 10
5.70549536
 20
6.33068677
  0
VERTEX
  8
EGA-729.PLT
 62
7
 10
5.74163867
 20
6.37229492
  0
VERTEX
  8
EGA-729.PLT
 62
7
 10
5.77583374
 20
6.41575171
  0
VERTEX
  8
EGA-729.PLT
 62
7
 10
5.80800000
 20
6.46100000
  0
VERTEX
  8
EGA-729.PLT
 62
7
 10
5.87411829
 20
6.53406049
  0
VERTEX
  8
EGA-729.PLT
 62
7
 10
5.94299707
 20
6.60322998
  0
VERTEX
  8
EGA-729.PLT
 62
7
 10
6.01448474
 20
6.66849054
  0
VERTEX
  8
EGA-729.PLT
 62
7
 10
6.08842969
 20
6.72982422
  0
VERTEX
  8
EGA-729.PLT
 62
7
 10
6.16468030
 20
6.78721307
  0
VERTEX
  8
EGA-729.PLT
 62
7
 10
6.24308496
 20
6.84063916
  0
VERTEX
  8
EGA-729.PLT
 62
7
 10
6.32349207
 20
6.89008453
  0
VERTEX
  8
EGA-729.PLT
 62
7
 10
6.40575000
 20
6.93553125
  0
VERTEX
  8
EGA-729.PLT
 62
7
 10
6.48970715
 20
6.97696136
  0
VERTEX
  8
EGA-729.PLT
 62
7
 10
6.57521191
 20
7.01435693
  0
VERTEX
  8
EGA-729.PLT
 62
7
 10
6.66211267
 20
7.04770001
  0
VERTEX
  8
EGA-729.PLT
 62
7
 10
6.75025781
 20
7.07697266
  0
VERTEX
  8
EGA-729.PLT
 62
7
 10
6.83949573
 20
7.10215692
  0
VERTEX
  8
EGA-729.PLT
 62
7
 10
6.92967480
 20
7.12323486
  0
VERTEX
  8
EGA-729.PLT
 62
7
 10
7.02064343
 20
7.14018854
  0
VERTEX
  8
EGA-729.PLT
 62
7
 10
7.11225000
 20
7.15300000
  0
VERTEX
  8
EGA-729.PLT
 62
7
 10
7.20434290
 20
7.16165131
  0
VERTEX
  8
EGA-729.PLT
 62
7
 10
7.29677051
 20
7.16612451
  0
VERTEX
  8
EGA-729.PLT
 62
7
 10
7.38938123
 20
7.16640167
  0
VERTEX
  8
EGA-729.PLT
 62
7
 10
7.48202344
 20
7.16246484
  0
VERTEX
  8
EGA-729.PLT
 62
7
 10
7.57454553
 20
7.15429608
  0
VERTEX
  8
EGA-729.PLT
 62
7
 10
7.66679590
 20
7.14187744
  0
VERTEX
  8
EGA-729.PLT
 62
7
 10
7.75862292
 20
7.12519098
  0
VERTEX
  8
EGA-729.PLT
 62
7
 10
7.84987500
 20
7.10421875
  0
VERTEX
  8
EGA-729.PLT
 62
7
 10
7.94040051
 20
7.07894281
  0
VERTEX
  8
EGA-729.PLT
 62
7
 10
8.03004785
 20
7.04934521
  0
VERTEX
  8
EGA-729.PLT
 62
7
 10
8.11866541
 20
7.01540802
  0
VERTEX
  8
EGA-729.PLT
 62
7
 10
8.20610156
 20
6.97711328
  0
VERTEX
  8
EGA-729.PLT
 62
7
 10
8.29220471
 20
6.93444305
  0
VERTEX
  8
EGA-729.PLT
 62
7
 10
8.37682324
 20
6.88737939
  0
VERTEX
  8
EGA-729.PLT
 62
7
 10
8.45980554
 20
6.83590436
  0
VERTEX
  8
EGA-729.PLT
 62
7
 10
8.54100000
 20
6.78000000
  0
VERTEX
  8
EGA-729.PLT
 62
7
 10
8.50704688
 20
6.76376562
  0
VERTEX
  8
EGA-729.PLT
 62
7
 10
8.47412500
 20
6.74537500
  0
VERTEX
  8
EGA-729.PLT
 62
7
 10
8.44214063
 20
6.72529687
  0
VERTEX
  8
EGA-729.PLT
 62
7
 10
8.41100000
 20
6.70400000
  0
VERTEX
  8
EGA-729.PLT
 62
7
 10
8.36751562
 20
6.66692187
  0
VERTEX
  8
EGA-729.PLT
 62
7
 10
8.32712500
 20
6.62637500
  0
VERTEX
  8
EGA-729.PLT
 62
7
 10
8.28992187
 20
6.58264062
  0
VERTEX
  8
EGA-729.PLT
 62
7
 10
8.25600000
 20
6.53600000
  0
VERTEX
  8
EGA-729.PLT
 62
7
 10
8.18567651
 20
6.55788184
  0
VERTEX
  8
EGA-729.PLT
 62
7
 10
8.11467773
 20
6.57591406
  0
VERTEX
  8
EGA-729.PLT
 62
7
 10
8.04314868
 20
6.59011426
  0
VERTEX
  8
EGA-729.PLT
 62
7
 10
7.97123437
 20
6.60050000
  0
VERTEX
  8
EGA-729.PLT
 62
7
 10
7.89907983
 20
6.60708887
  0
VERTEX
  8
EGA-729.PLT
 62
7
 10
7.82683008
 20
6.60989844
  0
VERTEX
  8
EGA-729.PLT
 62
7
 10
7.75463013
 20
6.60894629
  0
VERTEX
  8
EGA-729.PLT
 62
7
 10
7.68262500
 20
6.60425000
  0
VERTEX
  8
EGA-729.PLT
 62
7
 10
7.61095972
 20
6.59582715
  0
VERTEX
  8
EGA-729.PLT
 62
7
 10
7.53977930
 20
6.58369531
  0
VERTEX
  8
EGA-729.PLT
 62
7
 10
7.46922876
 20
6.56787207
  0
VERTEX
  8
EGA-729.PLT
 62
7
 10
7.39945313
 20
6.54837500
  0
VERTEX
  8
EGA-729.PLT
 62
7
 10
7.33059741
 20
6.52522168
  0
VERTEX
  8
EGA-729.PLT
 62
7
 10
7.26280664
 20
6.49842969
  0
VERTEX
  8
EGA-729.PLT
 62
7
 10
7.19622583
 20
6.46801660
  0
VERTEX
  8
EGA-729.PLT
 62
7
 10
7.13100000
 20
6.43400000
  0
VERTEX
  8
EGA-729.PLT
 62
7
 10
7.09128589
 20
6.41082959
  0
VERTEX
  8
EGA-729.PLT
 62
7
 10
7.05356836
 20
6.38527734
  0
VERTEX
  8
EGA-729.PLT
 62
7
 10
7.01792212
 20
6.35746924
  0
VERTEX
  8
EGA-729.PLT
 62
7
 10
6.98442187
 20
6.32753125
  0
VERTEX
  8
EGA-729.PLT
 62
7
 10
6.95314233
 20
6.29558936
  0
VERTEX
  8
EGA-729.PLT
 62
7
 10
6.92415820
 20
6.26176953
  0
VERTEX
  8
EGA-729.PLT
 62
7
 10
6.89754419
 20
6.22619775
  0
VERTEX
  8
EGA-729.PLT
 62
7
 10
6.87337500
 20
6.18900000
  0
VERTEX
  8
EGA-729.PLT
 62
7
 10
6.85172534
 20
6.15030225
  0
VERTEX
  8
EGA-729.PLT
 62
7
 10
6.83266992
 20
6.11023047
  0
VERTEX
  8
EGA-729.PLT
 62
7
 10
6.81628345
 20
6.06891064
  0
VERTEX
  8
EGA-729.PLT
 62
7
 10
6.80264063
 20
6.02646875
  0
VERTEX
  8
EGA-729.PLT
 62
7
 10
6.79181616
 20
5.98303076
  0
VERTEX
  8
EGA-729.PLT
 62
7
 10
6.78388477
 20
5.93872266
  0
VERTEX
  8
EGA-729.PLT
 62
7
 10
6.77892114
 20
5.89367041
  0
VERTEX
  8
EGA-729.PLT
 62
7
 10
6.77700000
 20
5.84800000
  0
VERTEX
  8
EGA-729.PLT
 62
7
 10
6.77619653
 20
5.81138599
  0
VERTEX
  8
EGA-729.PLT
 62
7
 10
6.77821289
 20
5.77544727
  0
VERTEX
  8
EGA-729.PLT
 62
7
 10
6.78293921
 20
5.74022632
  0
VERTEX
  8
EGA-729.PLT
 62
7
 10
6.79026563
 20
5.70576562
  0
VERTEX
  8
EGA-729.PLT
 62
7
 10
6.80008228
 20
5.67210767
  0
VERTEX
  8
EGA-729.PLT
 62
7
 10
6.81227930
 20
5.63929492
  0
VERTEX
  8
EGA-729.PLT
 62
7
 10
6.82674683
 20
5.60736987
  0
VERTEX
  8
EGA-729.PLT
 62
7
 10
6.84337500
 20
5.57637500
  0
VERTEX
  8
EGA-729.PLT
 62
7
 10
6.86205396
 20
5.54635278
  0
VERTEX
  8
EGA-729.PLT
 62
7
 10
6.88267383
 20
5.51734570
  0
VERTEX
  8
EGA-729.PLT
 62
7
 10
6.90512476
 20
5.48939624
  0
VERTEX
  8
EGA-729.PLT
 62
7
 10
6.92929688
 20
5.46254688
  0
VERTEX
  8
EGA-729.PLT
 62
7
 10
6.95508032
 20
5.43684009
  0
VERTEX
  8
EGA-729.PLT
 62
7
 10
6.98236523
 20
5.41231836
  0
VERTEX
  8
EGA-729.PLT
 62
7
 10
7.01104175
 20
5.38902417
  0
VERTEX
  8
EGA-729.PLT
 62
7
 10
7.04100000
 20
5.36700000
  0
VERTEX
  8
EGA-729.PLT
 62
7
 10
7.08049390
 20
5.34197412
  0
VERTEX
  8
EGA-729.PLT
 62
7
 10
7.12187305
 20
5.32087109
  0
VERTEX
  8
EGA-729.PLT
 62
7
 10
7.16479614
 20
5.30365283
  0
VERTEX
  8
EGA-729.PLT
 62
7
 10
7.20892187
 20
5.29028125
  0
VERTEX
  8
EGA-729.PLT
 62
7
 10
7.25390894
 20
5.28071826
  0
VERTEX
  8
EGA-729.PLT
 62
7
 10
7.29941602
 20
5.27492578
  0
VERTEX
  8
EGA-729.PLT
 62
7
 10
7.34510181
 20
5.27286572
  0
VERTEX
  8
EGA-729.PLT
 62
7
 10
7.39062500
 20
5.27450000
  0
VERTEX
  8
EGA-729.PLT
 62
7
 10
7.43564429
 20
5.27979053
  0
VERTEX
  8
EGA-729.PLT
 62
7
 10
7.47981836
 20
5.28869922
  0
VERTEX
  8
EGA-729.PLT
 62
7
 10
7.52280591
 20
5.30118799
  0
VERTEX
  8
EGA-729.PLT
 62
7
 10
7.56426563
 20
5.31721875
  0
VERTEX
  8
EGA-729.PLT
 62
7
 10
7.60385620
 20
5.33675342
  0
VERTEX
  8
EGA-729.PLT
 62
7
 10
7.64123633
 20
5.35975391
  0
VERTEX
  8
EGA-729.PLT
 62
7
 10
7.67606470
 20
5.38618213
  0
VERTEX
  8
EGA-729.PLT
 62
7
 10
7.70800000
 20
5.41600000
  0
VERTEX
  8
EGA-729.PLT
 62
7
 10
7.73649487
 20
5.44710376
  0
VERTEX
  8
EGA-729.PLT
 62
7
 10
7.76195898
 20
5.47850195
  0
VERTEX
  8
EGA-729.PLT
 62
7
 10
7.78436157
 20
5.51013745
  0
VERTEX
  8
EGA-729.PLT
 62
7
 10
7.80367188
 20
5.54195313
  0
VERTEX
  8
EGA-729.PLT
 62
7
 10
7.81985913
 20
5.57389185
  0
VERTEX
  8
EGA-729.PLT
 62
7
 10
7.83289258
 20
5.60589648
  0
VERTEX
  8
EGA-729.PLT
 62
7
 10
7.84274146
 20
5.63790991
  0
VERTEX
  8
EGA-729.PLT
 62
7
 10
7.84937500
 20
5.66987500
  0
VERTEX
  8
EGA-729.PLT
 62
7
 10
7.85276245
 20
5.70173462
  0
VERTEX
  8
EGA-729.PLT
 62
7
 10
7.85287305
 20
5.73343164
  0
VERTEX
  8
EGA-729.PLT
 62
7
 10
7.84967603
 20
5.76490894
  0
VERTEX
  8
EGA-729.PLT
 62
7
 10
7.84314063
 20
5.79610938
  0
VERTEX
  8
EGA-729.PLT
 62
7
 10
7.83323608
 20
5.82697583
  0
VERTEX
  8
EGA-729.PLT
 62
7
 10
7.81993164
 20
5.85745117
  0
VERTEX
  8
EGA-729.PLT
 62
7
 10
7.80319653
 20
5.88747827
  0
VERTEX
  8
EGA-729.PLT
 62
7
 10
7.78300000
 20
5.91700000
  0
VERTEX
  8
EGA-729.PLT
 62
7
 10
7.76530859
 20
5.94321484
  0
VERTEX
  8
EGA-729.PLT
 62
7
 10
7.74346875
 20
5.96696875
  0
VERTEX
  8
EGA-729.PLT
 62
7
 10
7.71820703
 20
5.98805078
  0
VERTEX
  8
EGA-729.PLT
 62
7
 10
7.69025000
 20
6.00625000
  0
VERTEX
  8
EGA-729.PLT
 62
7
 10
7.66032422
 20
6.02135547
  0
VERTEX
  8
EGA-729.PLT
 62
7
 10
7.62915625
 20
6.03315625
  0
VERTEX
  8
EGA-729.PLT
 62
7
 10
7.59747266
 20
6.04144141
  0
VERTEX
  8
EGA-729.PLT
 62
7
 10
7.56600000
 20
6.04600000
  0
VERTEX
  8
EGA-729.PLT
 62
7
 10
7.53502344
 20
6.04663477
  0
VERTEX
  8
EGA-729.PLT
 62
7
 10
7.50456250
 20
6.04339062
  0
VERTEX
  8
EGA-729.PLT
 62
7
 10
7.47494531
 20
6.03641992
  0
VERTEX
  8
EGA-729.PLT
 62
7
 10
7.44650000
 20
6.02587500
  0
VERTEX
  8
EGA-729.PLT
 62
7
 10
7.41955469
 20
6.01190820
  0
VERTEX
  8
EGA-729.PLT
 62
7
 10
7.39443750
 20
5.99467187
  0
VERTEX
  8
EGA-729.PLT
 62
7
 10
7.37147656
 20
5.97431836
  0
VERTEX
  8
EGA-729.PLT
 62
7
 10
7.35100000
 20
5.95100000
  0
VERTEX
  8
EGA-729.PLT
 62
7
 10
7.33085742
 20
5.92664258
  0
VERTEX
  8
EGA-729.PLT
 62
7
 10
7.31548437
 20
5.89976562
  0
VERTEX
  8
EGA-729.PLT
 62
7
 10
7.30496289
 20
5.87103711
  0
VERTEX
  8
EGA-729.PLT
 62
7
 10
7.29937500
 20
5.84112500
  0
VERTEX
  8
EGA-729.PLT
 62
7
 10
7.29880273
 20
5.81069727
  0
VERTEX
  8
EGA-729.PLT
 62
7
 10
7.30332813
 20
5.78042188
  0
VERTEX
  8
EGA-729.PLT
 62
7
 10
7.31303320
 20
5.75096680
  0
VERTEX
  8
EGA-729.PLT
 62
7
 10
7.32800000
 20
5.72300000
  0
VERTEX
  8
EGA-729.PLT
 62
7
 10
7.34758008
 20
5.69800391
  0
VERTEX
  8
EGA-729.PLT
 62
7
 10
7.37064063
 20
5.67715625
  0
VERTEX
  8
EGA-729.PLT
 62
7
 10
7.39653711
 20
5.66066797
  0
VERTEX
  8
EGA-729.PLT
 62
7
 10
7.42462500
 20
5.64875000
  0
VERTEX
  8
EGA-729.PLT
 62
7
 10
7.45425977
 20
5.64161328
  0
VERTEX
  8
EGA-729.PLT
 62
7
 10
7.48479687
 20
5.63946875
  0
VERTEX
  8
EGA-729.PLT
 62
7
 10
7.51559180
 20
5.64252734
  0
VERTEX
  8
EGA-729.PLT
 62
7
 10
7.54600000
 20
5.65100000
  0
VERTEX
  8
EGA-729.PLT
 62
7
 10
7.52601953
 20
5.65238086
  0
VERTEX
  8
EGA-729.PLT
 62
7
 10
7.50671875
 20
5.65642188
  0
VERTEX
  8
EGA-729.PLT
 62
7
 10
7.48830859
 20
5.66297070
  0
VERTEX
  8
EGA-729.PLT
 62
7
 10
7.47100000
 20
5.67187500
  0
VERTEX
  8
EGA-729.PLT
 62
7
 10
7.45500391
 20
5.68298242
  0
VERTEX
  8
EGA-729.PLT
 62
7
 10
7.44053125
 20
5.69614063
  0
VERTEX
  8
EGA-729.PLT
 62
7
 10
7.42779297
 20
5.71119727
  0
VERTEX
  8
EGA-729.PLT
 62
7
 10
7.41700000
 20
5.72800000
  0
VERTEX
  8
EGA-729.PLT
 62
7
 10
7.40856250
 20
5.74642383
  0
VERTEX
  8
EGA-729.PLT
 62
7
 10
7.40275000
 20
5.76551562
  0
VERTEX
  8
EGA-729.PLT
 62
7
 10
7.39956250
 20
5.78500586
  0
VERTEX
  8
EGA-729.PLT
 62
7
 10
7.39900000
 20
5.80462500
  0
VERTEX
  8
EGA-729.PLT
 62
7
 10
7.40106250
 20
5.82410352
  0
VERTEX
  8
EGA-729.PLT
 62
7
 10
7.40575000
 20
5.84317188
  0
VERTEX
  8
EGA-729.PLT
 62
7
 10
7.41306250
 20
5.86156055
  0
VERTEX
  8
EGA-729.PLT
 62
7
 10
7.42300000
 20
5.87900000
  0
VERTEX
  8
EGA-729.PLT
 62
7
 10
7.43491211
 20
5.89496289
  0
VERTEX
  8
EGA-729.PLT
 62
7
 10
7.44873437
 20
5.90901563
  0
VERTEX
  8
EGA-729.PLT
 62
7
 10
7.46422070
 20
5.92102930
  0
VERTEX
  8
EGA-729.PLT
 62
7
 10
7.48112500
 20
5.93087500
  0
VERTEX
  8
EGA-729.PLT
 62
7
 10
7.49920117
 20
5.93842383
  0
VERTEX
  8
EGA-729.PLT
 62
7
 10
7.51820313
 20
5.94354688
  0
VERTEX
  8
EGA-729.PLT
 62
7
 10
7.53788477
 20
5.94611523
  0
VERTEX
  8
EGA-729.PLT
 62
7
 10
7.55800000
 20
5.94600000
  0
VERTEX
  8
EGA-729.PLT
 62
7
 10
7.57820898
 20
5.94309375
  0
VERTEX
  8
EGA-729.PLT
 62
7
 10
7.59817188
 20
5.93756250
  0
VERTEX
  8
EGA-729.PLT
 62
7
 10
7.61764258
 20
5.92968750
  0
VERTEX
  8
EGA-729.PLT
 62
7
 10
7.63637500
 20
5.91975000
  0
VERTEX
  8
EGA-729.PLT
 62
7
 10
7.65412305
 20
5.90803125
  0
VERTEX
  8
EGA-729.PLT
 62
7
 10
7.67064062
 20
5.89481250
  0
VERTEX
  8
EGA-729.PLT
 62
7
 10
7.68568164
 20
5.88037500
  0
VERTEX
  8
EGA-729.PLT
 62
7
 10
7.69900000
 20
5.86500000
  0
VERTEX
  8
EGA-729.PLT
 62
7
 10
7.71775146
 20
5.83771826
  0
VERTEX
  8
EGA-729.PLT
 62
7
 10
7.73252734
 20
5.81099609
  0
VERTEX
  8
EGA-729.PLT
 62
7
 10
7.74354736
 20
5.78483057
  0
VERTEX
  8
EGA-729.PLT
 62
7
 10
7.75103125
 20
5.75921875
  0
VERTEX
  8
EGA-729.PLT
 62
7
 10
7.75519873
 20
5.73415771
  0
VERTEX
  8
EGA-729.PLT
 62
7
 10
7.75626953
 20
5.70964453
  0
VERTEX
  8
EGA-729.PLT
 62
7
 10
7.75446338
 20
5.68567627
  0
VERTEX
  8
EGA-729.PLT
 62
7
 10
7.75000000
 20
5.66225000
  0
VERTEX
  8
EGA-729.PLT
 62
7
 10
7.74309912
 20
5.63936279
  0
VERTEX
  8
EGA-729.PLT
 62
7
 10
7.73398047
 20
5.61701172
  0
VERTEX
  8
EGA-729.PLT
 62
7
 10
7.72286377
 20
5.59519385
  0
VERTEX
  8
EGA-729.PLT
 62
7
 10
7.70996875
 20
5.57390625
  0
VERTEX
  8
EGA-729.PLT
 62
7
 10
7.69551514
 20
5.55314600
  0
VERTEX
  8
EGA-729.PLT
 62
7
 10
7.67972266
 20
5.53291016
  0
VERTEX
  8
EGA-729.PLT
 62
7
 10
7.66281104
 20
5.51319580
  0
VERTEX
  8
EGA-729.PLT
 62
7
 10
7.64500000
 20
5.49400000
  0
VERTEX
  8
EGA-729.PLT
 62
7
 10
7.61824585
 20
5.46903979
  0
VERTEX
  8
EGA-729.PLT
 62
7
 10
7.58916992
 20
5.44703711
  0
VERTEX
  8
EGA-729.PLT
 62
7
 10
7.55805200
 20
5.42799634
  0
VERTEX
  8
EGA-729.PLT
 62
7
 10
7.52517187
 20
5.41192188
  0
VERTEX
  8
EGA-729.PLT
 62
7
 10
7.49080933
 20
5.39881812
  0
VERTEX
  8
EGA-729.PLT
 62
7
 10
7.45524414
 20
5.38868945
  0
VERTEX
  8
EGA-729.PLT
 62
7
 10
7.41875610
 20
5.38154028
  0
VERTEX
  8
EGA-729.PLT
 62
7
 10
7.38162500
 20
5.37737500
  0
VERTEX
  8
EGA-729.PLT
 62
7
 10
7.34413062
 20
5.37619800
  0
VERTEX
  8
EGA-729.PLT
 62
7
 10
7.30655273
 20
5.37801367
  0
VERTEX
  8
EGA-729.PLT
 62
7
 10
7.26917114
 20
5.38282642
  0
VERTEX
  8
EGA-729.PLT
 62
7
 10
7.23226563
 20
5.39064062
  0
VERTEX
  8
EGA-729.PLT
 62
7
 10
7.19611597
 20
5.40146069
  0
VERTEX
  8
EGA-729.PLT
 62
7
 10
7.16100195
 20
5.41529102
  0
VERTEX
  8
EGA-729.PLT
 62
7
 10
7.12720337
 20
5.43213599
  0
VERTEX
  8
EGA-729.PLT
 62
7
 10
7.09500000
 20
5.45200000
  0
VERTEX
  8
EGA-729.PLT
 62
7
 10
7.07019458
 20
5.46963013
  0
VERTEX
  8
EGA-729.PLT
 62
7
 10
7.04646289
 20
5.48836914
  0
VERTEX
  8
EGA-729.PLT
 62
7
 10
7.02389429
 20
5.50817749
  0
VERTEX
  8
EGA-729.PLT
 62
7
 10
7.00257813
 20
5.52901563
  0
VERTEX
  8
EGA-729.PLT
 62
7
 10
6.98260376
 20
5.55084399
  0
VERTEX
  8
EGA-729.PLT
 62
7
 10
6.96406055
 20
5.57362305
  0
VERTEX
  8
EGA-729.PLT
 62
7
 10
6.94703784
 20
5.59731323
  0
VERTEX
  8
EGA-729.PLT
 62
7
 10
6.93162500
 20
5.62187500
  0
VERTEX
  8
EGA-729.PLT
 62
7
 10
6.91791138
 20
5.64726880
  0
VERTEX
  8
EGA-729.PLT
 62
7
 10
6.90598633
 20
5.67345508
  0
VERTEX
  8
EGA-729.PLT
 62
7
 10
6.89593921
 20
5.70039429
  0
VERTEX
  8
EGA-729.PLT
 62
7
 10
6.88785937
 20
5.72804688
  0
VERTEX
  8
EGA-729.PLT
 62
7
 10
6.88183618
 20
5.75637329
  0
VERTEX
  8
EGA-729.PLT
 62
7
 10
6.87795898
 20
5.78533398
  0
VERTEX
  8
EGA-729.PLT
 62
7
 10
6.87631714
 20
5.81488940
  0
VERTEX
  8
EGA-729.PLT
 62
7
 10
6.87700000
 20
5.84500000
  0
VERTEX
  8
EGA-729.PLT
 62
7
 10
6.87854687
 20
5.88433276
  0
VERTEX
  8
EGA-729.PLT
 62
7
 10
6.88276563
 20
5.92313086
  0
VERTEX
  8
EGA-729.PLT
 62
7
 10
6.88958594
 20
5.96128149
  0
VERTEX
  8
EGA-729.PLT
 62
7
 10
6.89893750
 20
5.99867188
  0
VERTEX
  8
EGA-729.PLT
 62
7
 10
6.91075000
 20
6.03518921
  0
VERTEX
  8
EGA-729.PLT
 62
7
 10
6.92495313
 20
6.07072070
  0
VERTEX
  8
EGA-729.PLT
 62
7
 10
6.94147656
 20
6.10515356
  0
VERTEX
  8
EGA-729.PLT
 62
7
 10
6.96025000
 20
6.13837500
  0
VERTEX
  8
EGA-729.PLT
 62
7
 10
6.98120313
 20
6.17027222
  0
VERTEX
  8
EGA-729.PLT
 62
7
 10
7.00426563
 20
6.20073242
  0
VERTEX
  8
EGA-729.PLT
 62
7
 10
7.02936719
 20
6.22964282
  0
VERTEX
  8
EGA-729.PLT
 62
7
 10
7.05643750
 20
6.25689062
  0
VERTEX
  8
EGA-729.PLT
 62
7
 10
7.08540625
 20
6.28236304
  0
VERTEX
  8
EGA-729.PLT
 62
7
 10
7.11620313
 20
6.30594727
  0
VERTEX
  8
EGA-729.PLT
 62
7
 10
7.14875781
 20
6.32753052
  0
VERTEX
  8
EGA-729.PLT
 62
7
 10
7.18300000
 20
6.34700000
  0
VERTEX
  8
EGA-729.PLT
 62
7
 10
7.21622559
 20
6.36922900
  0
VERTEX
  8
EGA-729.PLT
 62
7
 10
7.25057031
 20
6.38903516
  0
VERTEX
  8
EGA-729.PLT
 62
7
 10
7.28591113
 20
6.40640967
  0
VERTEX
  8
EGA-729.PLT
 62
7
 10
7.32212500
 20
6.42134375
  0
VERTEX
  8
EGA-729.PLT
 62
7
 10
7.35908887
 20
6.43382861
  0
VERTEX
  8
EGA-729.PLT
 62
7
 10
7.39667969
 20
6.44385547
  0
VERTEX
  8
EGA-729.PLT
 62
7
 10
7.43477441
 20
6.45141553
  0
VERTEX
  8
EGA-729.PLT
 62
7
 10
7.47325000
 20
6.45650000
  0
VERTEX
  8
EGA-729.PLT
 62
7
 10
7.51198340
 20
6.45910010
  0
VERTEX
  8
EGA-729.PLT
 62
7
 10
7.55085156
 20
6.45920703
  0
VERTEX
  8
EGA-729.PLT
 62
7
 10
7.58973145
 20
6.45681201
  0
VERTEX
  8
EGA-729.PLT
 62
7
 10
7.62850000
 20
6.45190625
  0
VERTEX
  8
EGA-729.PLT
 62
7
 10
7.66703418
 20
6.44448096
  0
VERTEX
  8
EGA-729.PLT
 62
7
 10
7.70521094
 20
6.43452734
  0
VERTEX
  8
EGA-729.PLT
 62
7
 10
7.74290723
 20
6.42203662
  0
VERTEX
  8
EGA-729.PLT
 62
7
 10
7.78000000
 20
6.40700000
  0
VERTEX
  8
EGA-729.PLT
 62
7
 10
7.81584717
 20
6.38956763
  0
VERTEX
  8
EGA-729.PLT
 62
7
 10
7.85021484
 20
6.36996289
  0
VERTEX
  8
EGA-729.PLT
 62
7
 10
7.88302979
 20
6.34828687
  0
VERTEX
  8
EGA-729.PLT
 62
7
 10
7.91421875
 20
6.32464062
  0
VERTEX
  8
EGA-729.PLT
 62
7
 10
7.94370850
 20
6.29912524
  0
VERTEX
  8
EGA-729.PLT
 62
7
 10
7.97142578
 20
6.27184180
  0
VERTEX
  8
EGA-729.PLT
 62
7
 10
7.99729736
 20
6.24289136
  0
VERTEX
  8
EGA-729.PLT
 62
7
 10
8.02125000
 20
6.21237500
  0
VERTEX
  8
EGA-729.PLT
 62
7
 10
8.04321045
 20
6.18039380
  0
VERTEX
  8
EGA-729.PLT
 62
7
 10
8.06310547
 20
6.14704883
  0
VERTEX
  8
EGA-729.PLT
 62
7
 10
8.08086182
 20
6.11244116
  0
VERTEX
  8
EGA-729.PLT
 62
7
 10
8.09640625
 20
6.07667187
  0
VERTEX
  8
EGA-729.PLT
 62
7
 10
8.10966553
 20
6.03984204
  0
VERTEX
  8
EGA-729.PLT
 62
7
 10
8.12056641
 20
6.00205273
  0
VERTEX
  8
EGA-729.PLT
 62
7
 10
8.12903564
 20
5.96340503
  0
VERTEX
  8
EGA-729.PLT
 62
7
 10
8.13500000
 20
5.92400000
  0
VERTEX
  8
EGA-729.PLT
 62
7
 10
8.13664453
 20
5.95725977
  0
VERTEX
  8
EGA-729.PLT
 62
7
 10
8.14496875
 20
5.98832812
  0
VERTEX
  8
EGA-729.PLT
 62
7
 10
8.15943359
 20
6.01651367
  0
VERTEX
  8
EGA-729.PLT
 62
7
 10
8.17950000
 20
6.04112500
  0
VERTEX
  8
EGA-729.PLT
 62
7
 10
8.20462891
 20
6.06147070
  0
VERTEX
  8
EGA-729.PLT
 62
7
 10
8.23428125
 20
6.07685937
  0
VERTEX
  8
EGA-729.PLT
 62
7
 10
8.26791797
 20
6.08659961
  0
SEQEND
  0
POLYLINE
  8
EGA-729.PLT
 62
7
 66
1
 70
1
  0
VERTEX
  8
EGA-729.PLT
 62
7
 10
15.69500000
 20
6.09000000
  0
VERTEX
  8
EGA-729.PLT
 62
7
 10
15.73208203
 20
6.08659961
  0
VERTEX
  8
EGA-729.PLT
 62
7
 10
15.76571875
 20
6.07685937
  0
VERTEX
  8
EGA-729.PLT
 62
7
 10
15.79537109
 20
6.06147070
  0
VERTEX
  8
EGA-729.PLT
 62
7
 10
15.82050000
 20
6.04112500
  0
VERTEX
  8
EGA-729.PLT
 62
7
 10
15.84056641
 20
6.01651367
  0
VERTEX
  8
EGA-729.PLT
 62
7
 10
15.85503125
 20
5.98832812
  0
VERTEX
  8
EGA-729.PLT
 62
7
 10
15.86335547
 20
5.95725977
  0
VERTEX
  8
EGA-729.PLT
 62
7
 10
15.86500000
 20
5.92400000
  0
VERTEX
  8
EGA-729.PLT
 62
7
 10
15.87096436
 20
5.96340503
  0
VERTEX
  8
EGA-729.PLT
 62
7
 10
15.87943359
 20
6.00205273
  0
VERTEX
  8
EGA-729.PLT
 62
7
 10
15.89033447
 20
6.03984204
  0
VERTEX
  8
EGA-729.PLT
 62
7
 10
15.90359375
 20
6.07667187
  0
VERTEX
  8
EGA-729.PLT
 62
7
 10
15.91913818
 20
6.11244116
  0
VERTEX
  8
EGA-729.PLT
 62
7
 10
15.93689453
 20
6.14704883
  0
VERTEX
  8
EGA-729.PLT
 62
7
 10
15.95678955
 20
6.18039380
  0
VERTEX
  8
EGA-729.PLT
 62
7
 10
15.97875000
 20
6.21237500
  0
VERTEX
  8
EGA-729.PLT
 62
7
 10
16.00270264
 20
6.24289136
  0
VERTEX
  8
EGA-729.PLT
 62
7
 10
16.02857422
 20
6.27184180
  0
VERTEX
  8
EGA-729.PLT
 62
7
 10
16.05629150
 20
6.29912524
  0
VERTEX
  8
EGA-729.PLT
 62
7
 10
16.08578125
 20
6.32464062
  0
VERTEX
  8
EGA-729.PLT
 62
7
 10
16.11697021
 20
6.34828687
  0
VERTEX
  8
EGA-729.PLT
 62
7
 10
16.14978516
 20
6.36996289
  0
VERTEX
  8
EGA-729.PLT
 62
7
 10
16.18415283
 20
6.38956763
  0
VERTEX
  8
EGA-729.PLT
 62
7
 10
16.22000000
 20
6.40700000
  0
VERTEX
  8
EGA-729.PLT
 62
7
 10
16.25709277
 20
6.42203662
  0
VERTEX
  8
EGA-729.PLT
 62
7
 10
16.29478906
 20
6.43452734
  0
VERTEX
  8
EGA-729.PLT
 62
7
 10
16.33296582
 20
6.44448096
  0
VERTEX
  8
EGA-729.PLT
 62
7
 10
16.37150000
 20
6.45190625
  0
VERTEX
  8
EGA-729.PLT
 62
7
 10
16.41026855
 20
6.45681201
  0
VERTEX
  8
EGA-729.PLT
 62
7
 10
16.44914844
 20
6.45920703
  0
VERTEX
  8
EGA-729.PLT
 62
7
 10
16.48801660
 20
6.45910010
  0
VERTEX
  8
EGA-729.PLT
 62
7
 10
16.52675000
 20
6.45650000
  0
VERTEX
  8
EGA-729.PLT
 62
7
 10
16.56522559
 20
6.45141553
  0
VERTEX
  8
EGA-729.PLT
 62
7
 10
16.60332031
 20
6.44385547
  0
VERTEX
  8
EGA-729.PLT
 62
7
 10
16.64091113
 20
6.43382861
  0
VERTEX
  8
EGA-729.PLT
 62
7
 10
16.67787500
 20
6.42134375
  0
VERTEX
  8
EGA-729.PLT
 62
7
 10
16.71408887
 20
6.40640967
  0
VERTEX
  8
EGA-729.PLT
 62
7
 10
16.74942969
 20
6.38903516
  0
VERTEX
  8
EGA-729.PLT
 62
7
 10
16.78377441
 20
6.36922900
  0
VERTEX
  8
EGA-729.PLT
 62
7
 10
16.81700000
 20
6.34700000
  0
VERTEX
  8
EGA-729.PLT
 62
7
 10
16.85124219
 20
6.32753052
  0
VERTEX
  8
EGA-729.PLT
 62
7
 10
16.88379688
 20
6.30594727
  0
VERTEX
  8
EGA-729.PLT
 62
7
 10
16.91459375
 20
6.28236304
  0
VERTEX
  8
EGA-729.PLT
 62
7
 10
16.94356250
 20
6.25689062
  0
VERTEX
  8
EGA-729.PLT
 62
7
 10
16.97063281
 20
6.22964282
  0
VERTEX
  8
EGA-729.PLT
 62
7
 10
16.99573438
 20
6.20073242
  0
VERTEX
  8
EGA-729.PLT
 62
7
 10
17.01879688
 20
6.17027222
  0
VERTEX
  8
EGA-729.PLT
 62
7
 10
17.03975000
 20
6.13837500
  0
VERTEX
  8
EGA-729.PLT
 62
7
 10
17.05852344
 20
6.10515356
  0
VERTEX
  8
EGA-729.PLT
 62
7
 10
17.07504688
 20
6.07072070
  0
VERTEX
  8
EGA-729.PLT
 62
7
 10
17.08925000
 20
6.03518921
  0
VERTEX
  8
EGA-729.PLT
 62
7
 10
17.10106250
 20
5.99867188
  0
VERTEX
  8
EGA-729.PLT
 62
7
 10
17.11041406
 20
5.96128149
  0
VERTEX
  8
EGA-729.PLT
 62
7
 10
17.11723437
 20
5.92313086
  0
VERTEX
  8
EGA-729.PLT
 62
7
 10
17.12145312
 20
5.88433276
  0
VERTEX
  8
EGA-729.PLT
 62
7
 10
17.12300000
 20
5.84500000
  0
VERTEX
  8
EGA-729.PLT
 62
7
 10
17.12368286
 20
5.81488940
  0
VERTEX
  8
EGA-729.PLT
 62
7
 10
17.12204102
 20
5.78533398
  0
VERTEX
  8
EGA-729.PLT
 62
7
 10
17.11816382
 20
5.75637329
  0
VERTEX
  8
EGA-729.PLT
 62
7
 10
17.11214062
 20
5.72804688
  0
VERTEX
  8
EGA-729.PLT
 62
7
 10
17.10406079
 20
5.70039429
  0
VERTEX
  8
EGA-729.PLT
 62
7
 10
17.09401367
 20
5.67345508
  0
VERTEX
  8
EGA-729.PLT
 62
7
 10
17.08208862
 20
5.64726880
  0
VERTEX
  8
EGA-729.PLT
 62
7
 10
17.06837500
 20
5.62187500
  0
VERTEX
  8
EGA-729.PLT
 62
7
 10
17.05296216
 20
5.59731323
  0
VERTEX
  8
EGA-729.PLT
 62
7
 10
17.03593945
 20
5.57362305
  0
VERTEX
  8
EGA-729.PLT
 62
7
 10
17.01739624
 20
5.55084399
  0
VERTEX
  8
EGA-729.PLT
 62
7
 10
16.99742188
 20
5.52901563
  0
VERTEX
  8
EGA-729.PLT
 62
7
 10
16.97610571
 20
5.50817749
  0
VERTEX
  8
EGA-729.PLT
 62
7
 10
16.95353711
 20
5.48836914
  0
VERTEX
  8
EGA-729.PLT
 62
7
 10
16.92980542
 20
5.46963013
  0
VERTEX
  8
EGA-729.PLT
 62
7
 10
16.90500000
 20
5.45200000
  0
VERTEX
  8
EGA-729.PLT
 62
7
 10
16.87279663
 20
5.43213599
  0
VERTEX
  8
EGA-729.PLT
 62
7
 10
16.83899805
 20
5.41529102
  0
VERTEX
  8
EGA-729.PLT
 62
7
 10
16.80388403
 20
5.40146069
  0
VERTEX
  8
EGA-729.PLT
 62
7
 10
16.76773438
 20
5.39064062
  0
VERTEX
  8
EGA-729.PLT
 62
7
 10
16.73082886
 20
5.38282642
  0
VERTEX
  8
EGA-729.PLT
 62
7
 10
16.69344727
 20
5.37801367
  0
VERTEX
  8
EGA-729.PLT
 62
7
 10
16.65586938
 20
5.37619800
  0
VERTEX
  8
EGA-729.PLT
 62
7
 10
16.61837500
 20
5.37737500
  0
VERTEX
  8
EGA-729.PLT
 62
7
 10
16.58124390
 20
5.38154028
  0
VERTEX
  8
EGA-729.PLT
 62
7
 10
16.54475586
 20
5.38868945
  0
VERTEX
  8
EGA-729.PLT
 62
7
 10
16.50919067
 20
5.39881812
  0
VERTEX
  8
EGA-729.PLT
 62
7
 10
16.47482812
 20
5.41192188
  0
VERTEX
  8
EGA-729.PLT
 62
7
 10
16.44194800
 20
5.42799634
  0
VERTEX
  8
EGA-729.PLT
 62
7
 10
16.41083008
 20
5.44703711
  0
VERTEX
  8
EGA-729.PLT
 62
7
 10
16.38175415
 20
5.46903979
  0
VERTEX
  8
EGA-729.PLT
 62
7
 10
16.35500000
 20
5.49400000
  0
VERTEX
  8
EGA-729.PLT
 62
7
 10
16.33718896
 20
5.51319580
  0
VERTEX
  8
EGA-729.PLT
 62
7
 10
16.32027734
 20
5.53291016
  0
VERTEX
  8
EGA-729.PLT
 62
7
 10
16.30448486
 20
5.55314600
  0
VERTEX
  8
EGA-729.PLT
 62
7
 10
16.29003125
 20
5.57390625
  0
VERTEX
  8
EGA-729.PLT
 62
7
 10
16.27713623
 20
5.59519385
  0
VERTEX
  8
EGA-729.PLT
 62
7
 10
16.26601953
 20
5.61701172
  0
VERTEX
  8
EGA-729.PLT
 62
7
 10
16.25690088
 20
5.63936279
  0
VERTEX
  8
EGA-729.PLT
 62
7
 10
16.25000000
 20
5.66225000
  0
VERTEX
  8
EGA-729.PLT
 62
7
 10
16.24553662
 20
5.68567627
  0
VERTEX
  8
EGA-729.PLT
 62
7
 10
16.24373047
 20
5.70964453
  0
VERTEX
  8
EGA-729.PLT
 62
7
 10
16.24480127
 20
5.73415771
  0
VERTEX
  8
EGA-729.PLT
 62
7
 10
16.24896875
 20
5.75921875
  0
VERTEX
  8
EGA-729.PLT
 62
7
 10
16.25645264
 20
5.78483057
  0
VERTEX
  8
EGA-729.PLT
 62
7
 10
16.26747266
 20
5.81099609
  0
VERTEX
  8
EGA-729.PLT
 62
7
 10
16.28224854
 20
5.83771826
  0
VERTEX
  8
EGA-729.PLT
 62
7
 10
16.30100000
 20
5.86500000
  0
VERTEX
  8
EGA-729.PLT
 62
7
 10
16.31431836
 20
5.88037500
  0
VERTEX
  8
EGA-729.PLT
 62
7
 10
16.32935937
 20
5.89481250
  0
VERTEX
  8
EGA-729.PLT
 62
7
 10
16.34587695
 20
5.90803125
  0
VERTEX
  8
EGA-729.PLT
 62
7
 10
16.36362500
 20
5.91975000
  0
VERTEX
  8
EGA-729.PLT
 62
7
 10
16.38235742
 20
5.92968750
  0
VERTEX
  8
EGA-729.PLT
 62
7
 10
16.40182813
 20
5.93756250
  0
VERTEX
  8
EGA-729.PLT
 62
7
 10
16.42179102
 20
5.94309375
  0
VERTEX
  8
EGA-729.PLT
 62
7
 10
16.44200000
 20
5.94600000
  0
VERTEX
  8
EGA-729.PLT
 62
7
 10
16.46211523
 20
5.94611523
  0
VERTEX
  8
EGA-729.PLT
 62
7
 10
16.48179688
 20
5.94354688
  0
VERTEX
  8
EGA-729.PLT
 62
7
 10
16.50079883
 20
5.93842383
  0
VERTEX
  8
EGA-729.PLT
 62
7
 10
16.51887500
 20
5.93087500
  0
VERTEX
  8
EGA-729.PLT
 62
7
 10
16.53577930
 20
5.92102930
  0
VERTEX
  8
EGA-729.PLT
 62
7
 10
16.55126562
 20
5.90901563
  0
VERTEX
  8
EGA-729.PLT
 62
7
 10
16.56508789
 20
5.89496289
  0
VERTEX
  8
EGA-729.PLT
 62
7
 10
16.57700000
 20
5.87900000
  0
VERTEX
  8
EGA-729.PLT
 62
7
 10
16.58693750
 20
5.86156055
  0
VERTEX
  8
EGA-729.PLT
 62
7
 10
16.59425000
 20
5.84317188
  0
VERTEX
  8
EGA-729.PLT
 62
7
 10
16.59893750
 20
5.82410352
  0
VERTEX
  8
EGA-729.PLT
 62
7
 10
16.60100000
 20
5.80462500
  0
VERTEX
  8
EGA-729.PLT
 62
7
 10
16.60043750
 20
5.78500586
  0
VERTEX
  8
EGA-729.PLT
 62
7
 10
16.59725000
 20
5.76551562
  0
VERTEX
  8
EGA-729.PLT
 62
7
 10
16.59143750
 20
5.74642383
  0
VERTEX
  8
EGA-729.PLT
 62
7
 10
16.58300000
 20
5.72800000
  0
VERTEX
  8
EGA-729.PLT
 62
7
 10
16.57220703
 20
5.71119727
  0
VERTEX
  8
EGA-729.PLT
 62
7
 10
16.55946875
 20
5.69614063
  0
VERTEX
  8
EGA-729.PLT
 62
7
 10
16.54499609
 20
5.68298242
  0
VERTEX
  8
EGA-729.PLT
 62
7
 10
16.52900000
 20
5.67187500
  0
VERTEX
  8
EGA-729.PLT
 62
7
 10
16.51169141
 20
5.66297070
  0
VERTEX
  8
EGA-729.PLT
 62
7
 10
16.49328125
 20
5.65642188
  0
VERTEX
  8
EGA-729.PLT
 62
7
 10
16.47398047
 20
5.65238086
  0
VERTEX
  8
EGA-729.PLT
 62
7
 10
16.45400000
 20
5.65100000
  0
VERTEX
  8
EGA-729.PLT
 62
7
 10
16.48440820
 20
5.64252734
  0
VERTEX
  8
EGA-729.PLT
 62
7
 10
16.51520312
 20
5.63946875
  0
VERTEX
  8
EGA-729.PLT
 62
7
 10
16.54574023
 20
5.64161328
  0
VERTEX
  8
EGA-729.PLT
 62
7
 10
16.57537500
 20
5.64875000
  0
VERTEX
  8
EGA-729.PLT
 62
7
 10
16.60346289
 20
5.66066797
  0
VERTEX
  8
EGA-729.PLT
 62
7
 10
16.62935938
 20
5.67715625
  0
VERTEX
  8
EGA-729.PLT
 62
7
 10
16.65241992
 20
5.69800391
  0
VERTEX
  8
EGA-729.PLT
 62
7
 10
16.67200000
 20
5.72300000
  0
VERTEX
  8
EGA-729.PLT
 62
7
 10
16.68696680
 20
5.75096680
  0
VERTEX
  8
EGA-729.PLT
 62
7
 10
16.69667188
 20
5.78042188
  0
VERTEX
  8
EGA-729.PLT
 62
7
 10
16.70119727
 20
5.81069727
  0
VERTEX
  8
EGA-729.PLT
 62
7
 10
16.70062500
 20
5.84112500
  0
VERTEX
  8
EGA-729.PLT
 62
7
 10
16.69503711
 20
5.87103711
  0
VERTEX
  8
EGA-729.PLT
 62
7
 10
16.68451563
 20
5.89976562
  0
VERTEX
  8
EGA-729.PLT
 62
7
 10
16.66914258
 20
5.92664258
  0
VERTEX
  8
EGA-729.PLT
 62
7
 10
16.64900000
 20
5.95100000
  0
VERTEX
  8
EGA-729.PLT
 62
7
 10
16.62852344
 20
5.97431836
  0
VERTEX
  8
EGA-729.PLT
 62
7
 10
16.60556250
 20
5.99467187
  0
VERTEX
  8
EGA-729.PLT
 62
7
 10
16.58044531
 20
6.01190820
  0
VERTEX
  8
EGA-729.PLT
 62
7
 10
16.55350000
 20
6.02587500
  0
VERTEX
  8
EGA-729.PLT
 62
7
 10
16.52505469
 20
6.03641992
  0
VERTEX
  8
EGA-729.PLT
 62
7
 10
16.49543750
 20
6.04339062
  0
VERTEX
  8
EGA-729.PLT
 62
7
 10
16.46497656
 20
6.04663477
  0
VERTEX
  8
EGA-729.PLT
 62
7
 10
16.43400000
 20
6.04600000
  0
VERTEX
  8
EGA-729.PLT
 62
7
 10
16.40252734
 20
6.04144141
  0
VERTEX
  8
EGA-729.PLT
 62
7
 10
16.37084375
 20
6.03315625
  0
VERTEX
  8
EGA-729.PLT
 62
7
 10
16.33967578
 20
6.02135547
  0
VERTEX
  8
EGA-729.PLT
 62
7
 10
16.30975000
 20
6.00625000
  0
VERTEX
  8
EGA-729.PLT
 62
7
 10
16.28179297
 20
5.98805078
  0
VERTEX
  8
EGA-729.PLT
 62
7
 10
16.25653125
 20
5.96696875
  0
VERTEX
  8
EGA-729.PLT
 62
7
 10
16.23469141
 20
5.94321484
  0
VERTEX
  8
EGA-729.PLT
 62
7
 10
16.21700000
 20
5.91700000
  0
VERTEX
  8
EGA-729.PLT
 62
7
 10
16.19680347
 20
5.88747827
  0
VERTEX
  8
EGA-729.PLT
 62
7
 10
16.18006836
 20
5.85745117
  0
VERTEX
  8
EGA-729.PLT
 62
7
 10
16.16676392
 20
5.82697583
  0
VERTEX
  8
EGA-729.PLT
 62
7
 10
16.15685938
 20
5.79610938
  0
VERTEX
  8
EGA-729.PLT
 62
7
 10
16.15032397
 20
5.76490894
  0
VERTEX
  8
EGA-729.PLT
 62
7
 10
16.14712695
 20
5.73343164
  0
VERTEX
  8
EGA-729.PLT
 62
7
 10
16.14723755
 20
5.70173462
  0
VERTEX
  8
EGA-729.PLT
 62
7
 10
16.15062500
 20
5.66987500
  0
VERTEX
  8
EGA-729.PLT
 62
7
 10
16.15725854
 20
5.63790991
  0
VERTEX
  8
EGA-729.PLT
 62
7
 10
16.16710742
 20
5.60589648
  0
VERTEX
  8
EGA-729.PLT
 62
7
 10
16.18014087
 20
5.57389185
  0
VERTEX
  8
EGA-729.PLT
 62
7
 10
16.19632813
 20
5.54195313
  0
VERTEX
  8
EGA-729.PLT
 62
7
 10
16.21563843
 20
5.51013745
  0
VERTEX
  8
EGA-729.PLT
 62
7
 10
16.23804102
 20
5.47850195
  0
VERTEX
  8
EGA-729.PLT
 62
7
 10
16.26350513
 20
5.44710376
  0
VERTEX
  8
EGA-729.PLT
 62
7
 10
16.29200000
 20
5.41600000
  0
VERTEX
  8
EGA-729.PLT
 62
7
 10
16.32393530
 20
5.38618213
  0
VERTEX
  8
EGA-729.PLT
 62
7
 10
16.35876367
 20
5.35975391
  0
VERTEX
  8
EGA-729.PLT
 62
7
 10
16.39614380
 20
5.33675342
  0
VERTEX
  8
EGA-729.PLT
 62
7
 10
16.43573437
 20
5.31721875
  0
VERTEX
  8
EGA-729.PLT
 62
7
 10
16.47719409
 20
5.30118799
  0
VERTEX
  8
EGA-729.PLT
 62
7
 10
16.52018164
 20
5.28869922
  0
VERTEX
  8
EGA-729.PLT
 62
7
 10
16.56435571
 20
5.27979053
  0
VERTEX
  8
EGA-729.PLT
 62
7
 10
16.60937500
 20
5.27450000
  0
VERTEX
  8
EGA-729.PLT
 62
7
 10
16.65489819
 20
5.27286572
  0
VERTEX
  8
EGA-729.PLT
 62
7
 10
16.70058398
 20
5.27492578
  0
VERTEX
  8
EGA-729.PLT
 62
7
 10
16.74609106
 20
5.28071826
  0
VERTEX
  8
EGA-729.PLT
 62
7
 10
16.79107812
 20
5.29028125
  0
VERTEX
  8
EGA-729.PLT
 62
7
 10
16.83520386
 20
5.30365283
  0
VERTEX
  8
EGA-729.PLT
 62
7
 10
16.87812695
 20
5.32087109
  0
VERTEX
  8
EGA-729.PLT
 62
7
 10
16.91950610
 20
5.34197412
  0
VERTEX
  8
EGA-729.PLT
 62
7
 10
16.95900000
 20
5.36700000
  0
VERTEX
  8
EGA-729.PLT
 62
7
 10
16.98895825
 20
5.38902417
  0
VERTEX
  8
EGA-729.PLT
 62
7
 10
17.01763477
 20
5.41231836
  0
VERTEX
  8
EGA-729.PLT
 62
7
 10
17.04491968
 20
5.43684009
  0
VERTEX
  8
EGA-729.PLT
 62
7
 10
17.07070313
 20
5.46254688
  0
VERTEX
  8
EGA-729.PLT
 62
7
 10
17.09487524
 20
5.48939624
  0
VERTEX
  8
EGA-729.PLT
 62
7
 10
17.11732617
 20
5.51734570
  0
VERTEX
  8
EGA-729.PLT
 62
7
 10
17.13794604
 20
5.54635278
  0
VERTEX
  8
EGA-729.PLT
 62
7
 10
17.15662500
 20
5.57637500
  0
VERTEX
  8
EGA-729.PLT
 62
7
 10
17.17325317
 20
5.60736987
  0
VERTEX
  8
EGA-729.PLT
 62
7
 10
17.18772070
 20
5.63929492
  0
VERTEX
  8
EGA-729.PLT
 62
7
 10
17.19991772
 20
5.67210767
  0
VERTEX
  8
EGA-729.PLT
 62
7
 10
17.20973438
 20
5.70576562
  0
VERTEX
  8
EGA-729.PLT
 62
7
 10
17.21706079
 20
5.74022632
  0
VERTEX
  8
EGA-729.PLT
 62
7
 10
17.22178711
 20
5.77544727
  0
VERTEX
  8
EGA-729.PLT
 62
7
 10
17.22380347
 20
5.81138599
  0
VERTEX
  8
EGA-729.PLT
 62
7
 10
17.22300000
 20
5.84800000
  0
VERTEX
  8
EGA-729.PLT
 62
7
 10
17.22107886
 20
5.89367041
  0
VERTEX
  8
EGA-729.PLT
 62
7
 10
17.21611523
 20
5.93872266
  0
VERTEX
  8
EGA-729.PLT
 62
7
 10
17.20818384
 20
5.98303076
  0
VERTEX
  8
EGA-729.PLT
 62
7
 10
17.19735938
 20
6.02646875
  0
VERTEX
  8
EGA-729.PLT
 62
7
 10
17.18371655
 20
6.06891064
  0
VERTEX
  8
EGA-729.PLT
 62
7
 10
17.16733008
 20
6.11023047
  0
VERTEX
  8
EGA-729.PLT
 62
7
 10
17.14827466
 20
6.15030225
  0
VERTEX
  8
EGA-729.PLT
 62
7
 10
17.12662500
 20
6.18900000
  0
VERTEX
  8
EGA-729.PLT
 62
7
 10
17.10245581
 20
6.22619775
  0
VERTEX
  8
EGA-729.PLT
 62
7
 10
17.07584180
 20
6.26176953
  0
VERTEX
  8
EGA-729.PLT
 62
7
 10
17.04685767
 20
6.29558936
  0
VERTEX
  8
EGA-729.PLT
 62
7
 10
17.01557813
 20
6.32753125
  0
VERTEX
  8
EGA-729.PLT
 62
7
 10
16.98207788
 20
6.35746924
  0
VERTEX
  8
EGA-729.PLT
 62
7
 10
16.94643164
 20
6.38527734
  0
VERTEX
  8
EGA-729.PLT
 62
7
 10
16.90871411
 20
6.41082959
  0
VERTEX
  8
EGA-729.PLT
 62
7
 10
16.86900000
 20
6.43400000
  0
VERTEX
  8
EGA-729.PLT
 62
7
 10
16.80377417
 20
6.46801660
  0
VERTEX
  8
EGA-729.PLT
 62
7
 10
16.73719336
 20
6.49842969
  0
VERTEX
  8
EGA-729.PLT
 62
7
 10
16.66940259
 20
6.52522168
  0
VERTEX
  8
EGA-729.PLT
 62
7
 10
16.60054687
 20
6.54837500
  0
VERTEX
  8
EGA-729.PLT
 62
7
 10
16.53077124
 20
6.56787207
  0
VERTEX
  8
EGA-729.PLT
 62
7
 10
16.46022070
 20
6.58369531
  0
VERTEX
  8
EGA-729.PLT
 62
7
 10
16.38904028
 20
6.59582715
  0
VERTEX
  8
EGA-729.PLT
 62
7
 10
16.31737500
 20
6.60425000
  0
VERTEX
  8
EGA-729.PLT
 62
7
 10
16.24536987
 20
6.60894629
  0
VERTEX
  8
EGA-729.PLT
 62
7
 10
16.17316992
 20
6.60989844
  0
VERTEX
  8
EGA-729.PLT
 62
7
 10
16.10092017
 20
6.60708887
  0
VERTEX
  8
EGA-729.PLT
 62
7
 10
16.02876562
 20
6.60050000
  0
VERTEX
  8
EGA-729.PLT
 62
7
 10
15.95685132
 20
6.59011426
  0
VERTEX
  8
EGA-729.PLT
 62
7
 10
15.88532227
 20
6.57591406
  0
VERTEX
  8
EGA-729.PLT
 62
7
 10
15.81432349
 20
6.55788184
  0
VERTEX
  8
EGA-729.PLT
 62
7
 10
15.74400000
 20
6.53600000
  0
VERTEX
  8
EGA-729.PLT
 62
7
 10
15.71007813
 20
6.58264062
  0
VERTEX
  8
EGA-729.PLT
 62
7
 10
15.67287500
 20
6.62637500
  0
VERTEX
  8
EGA-729.PLT
 62
7
 10
15.63248438
 20
6.66692187
  0
VERTEX
  8
EGA-729.PLT
 62
7
 10
15.58900000
 20
6.70400000
  0
VERTEX
  8
EGA-729.PLT
 62
7
 10
15.55785938
 20
6.72529687
  0
VERTEX
  8
EGA-729.PLT
 62
7
 10
15.52587500
 20
6.74537500
  0
VERTEX
  8
EGA-729.PLT
 62
7
 10
15.49295313
 20
6.76376562
  0
VERTEX
  8
EGA-729.PLT
 62
7
 10
15.45900000
 20
6.78000000
  0
VERTEX
  8
EGA-729.PLT
 62
7
 10
15.54019446
 20
6.83590436
  0
VERTEX
  8
EGA-729.PLT
 62
7
 10
15.62317676
 20
6.88737939
  0
VERTEX
  8
EGA-729.PLT
 62
7
 10
15.70779529
 20
6.93444305
  0
VERTEX
  8
EGA-729.PLT
 62
7
 10
15.79389844
 20
6.97711328
  0
VERTEX
  8
EGA-729.PLT
 62
7
 10
15.88133459
 20
7.01540802
  0
VERTEX
  8
EGA-729.PLT
 62
7
 10
15.96995215
 20
7.04934521
  0
VERTEX
  8
EGA-729.PLT
 62
7
 10
16.05959949
 20
7.07894281
  0
VERTEX
  8
EGA-729.PLT
 62
7
 10
16.15012500
 20
7.10421875
  0
VERTEX
  8
EGA-729.PLT
 62
7
 10
16.24137708
 20
7.12519098
  0
VERTEX
  8
EGA-729.PLT
 62
7
 10
16.33320410
 20
7.14187744
  0
VERTEX
  8
EGA-729.PLT
 62
7
 10
16.42545447
 20
7.15429608
  0
VERTEX
  8
EGA-729.PLT
 62
7
 10
16.51797656
 20
7.16246484
  0
VERTEX
  8
EGA-729.PLT
 62
7
 10
16.61061877
 20
7.16640167
  0
VERTEX
  8
EGA-729.PLT
 62
7
 10
16.70322949
 20
7.16612451
  0
VERTEX
  8
EGA-729.PLT
 62
7
 10
16.79565710
 20
7.16165131
  0
VERTEX
  8
EGA-729.PLT
 62
7
 10
16.88775000
 20
7.15300000
  0
VERTEX
  8
EGA-729.PLT
 62
7
 10
16.97935657
 20
7.14018854
  0
VERTEX
  8
EGA-729.PLT
 62
7
 10
17.07032520
 20
7.12323486
  0
VERTEX
  8
EGA-729.PLT
 62
7
 10
17.16050427
 20
7.10215692
  0
VERTEX
  8
EGA-729.PLT
 62
7
 10
17.24974219
 20
7.07697266
  0
VERTEX
  8
EGA-729.PLT
 62
7
 10
17.33788733
 20
7.04770001
  0
VERTEX
  8
EGA-729.PLT
 62
7
 10
17.42478809
 20
7.01435693
  0
VERTEX
  8
EGA-729.PLT
 62
7
 10
17.51029285
 20
6.97696136
  0
VERTEX
  8
EGA-729.PLT
 62
7
 10
17.59425000
 20
6.93553125
  0
VERTEX
  8
EGA-729.PLT
 62
7
 10
17.67650793
 20
6.89008453
  0
VERTEX
  8
EGA-729.PLT
 62
7
 10
17.75691504
 20
6.84063916
  0
VERTEX
  8
EGA-729.PLT
 62
7
 10
17.83531970
 20
6.78721307
  0
VERTEX
  8
EGA-729.PLT
 62
7
 10
17.91157031
 20
6.72982422
  0
VERTEX
  8
EGA-729.PLT
 62
7
 10
17.98551526
 20
6.66849054
  0
VERTEX
  8
EGA-729.PLT
 62
7
 10
18.05700293
 20
6.60322998
  0
VERTEX
  8
EGA-729.PLT
 62
7
 10
18.12588171
 20
6.53406049
  0
VERTEX
  8
EGA-729.PLT
 62
7
 10
18.19200000
 20
6.46100000
  0
VERTEX
  8
EGA-729.PLT
 62
7
 10
18.22416626
 20
6.41575171
  0
VERTEX
  8
EGA-729.PLT
 62
7
 10
18.25836133
 20
6.37229492
  0
VERTEX
  8
EGA-729.PLT
 62
7
 10
18.29450464
 20
6.33068677
  0
VERTEX
  8
EGA-729.PLT
 62
7
 10
18.33251562
 20
6.29098437
  0
VERTEX
  8
EGA-729.PLT
 62
7
 10
18.37231372
 20
6.25324487
  0
VERTEX
  8
EGA-729.PLT
 62
7
 10
18.41381836
 20
6.21752539
  0
VERTEX
  8
EGA-729.PLT
 62
7
 10
18.45694897
 20
6.18388306
  0
VERTEX
  8
EGA-729.PLT
 62
7
 10
18.50162500
 20
6.15237500
  0
VERTEX
  8
EGA-729.PLT
 62
7
 10
18.54776587
 20
6.12305835
  0
VERTEX
  8
EGA-729.PLT
 62
7
 10
18.59529102
 20
6.09599023
  0
VERTEX
  8
EGA-729.PLT
 62
7
 10
18.64411987
 20
6.07122778
  0
VERTEX
  8
EGA-729.PLT
 62
7
 10
18.69417187
 20
6.04882813
  0
VERTEX
  8
EGA-729.PLT
 62
7
 10
18.74536646
 20
6.02884839
  0
VERTEX
  8
EGA-729.PLT
 62
7
 10
18.79762305
 20
6.01134570
  0
VERTEX
  8
EGA-729.PLT
 62
7
 10
18.85086108
 20
5.99637720
  0
VERTEX
  8
EGA-729.PLT
 62
7
 10
18.90500000
 20
5.98400000
  0
VERTEX
  8
EGA-729.PLT
 62
7
 10
18.94693164
 20
5.97190430
  0
VERTEX
  8
EGA-729.PLT
 62
7
 10
18.98939062
 20
5.96260938
  0
VERTEX
  8
EGA-729.PLT
 62
7
 10
19.03224805
 20
5.95610352
  0
VERTEX
  8
EGA-729.PLT
 62
7
 10
19.07537500
 20
5.95237500
  0
VERTEX
  8
EGA-729.PLT
 62
7
 10
19.11864258
 20
5.95141211
  0
VERTEX
  8
EGA-729.PLT
 62
7
 10
19.16192188
 20
5.95320312
  0
VERTEX
  8
EGA-729.PLT
 62
7
 10
19.20508398
 20
5.95773633
  0
VERTEX
  8
EGA-729.PLT
 62
7
 10
19.24800000
 20
5.96500000
  0
VERTEX
  8
EGA-729.PLT
 62
7
 10
19.24700000
 20
5.96500000
  0
VERTEX
  8
EGA-729.PLT
 62
7
 10
19.27466357
 20
5.97337744
  0
VERTEX
  8
EGA-729.PLT
 62
7
 10
19.30096484
 20
5.98416016
  0
VERTEX
  8
EGA-729.PLT
 62
7
 10
19.32580713
 20
5.99719873
  0
VERTEX
  8
EGA-729.PLT
 62
7
 10
19.34909375
 20
6.01234375
  0
VERTEX
  8
EGA-729.PLT
 62
7
 10
19.37072803
 20
6.02944580
  0
VERTEX
  8
EGA-729.PLT
 62
7
 10
19.39061328
 20
6.04835547
  0
VERTEX
  8
EGA-729.PLT
 62
7
 10
19.40865283
 20
6.06892334
  0
VERTEX
  8
EGA-729.PLT
 62
7
 10
19.42475000
 20
6.09100000
  0
VERTEX
  8
EGA-729.PLT
 62
7
 10
19.43880811
 20
6.11443604
  0
VERTEX
  8
EGA-729.PLT
 62
7
 10
19.45073047
 20
6.13908203
  0
VERTEX
  8
EGA-729.PLT
 62
7
 10
19.46042041
 20
6.16478857
  0
VERTEX
  8
EGA-729.PLT
 62
7
 10
19.46778125
 20
6.19140625
  0
VERTEX
  8
EGA-729.PLT
 62
7
 10
19.47271631
 20
6.21878564
  0
VERTEX
  8
EGA-729.PLT
 62
7
 10
19.47512891
 20
6.24677734
  0
VERTEX
  8
EGA-729.PLT
 62
7
 10
19.47492236
 20
6.27523193
  0
VERTEX
  8
EGA-729.PLT
 62
7
 10
19.47200000
 20
6.30400000
  0
VERTEX
  8
EGA-729.PLT
 62
7
 10
19.46637500
 20
6.33236377
  0
VERTEX
  8
EGA-729.PLT
 62
7
 10
19.45821875
 20
6.35962891
  0
VERTEX
  8
EGA-729.PLT
 62
7
 10
19.44767188
 20
6.38568115
  0
VERTEX
  8
EGA-729.PLT
 62
7
 10
19.43487500
 20
6.41040625
  0
VERTEX
  8
EGA-729.PLT
 62
7
 10
19.41996875
 20
6.43368994
  0
VERTEX
  8
EGA-729.PLT
 62
7
 10
19.40309375
 20
6.45541797
  0
VERTEX
  8
EGA-729.PLT
 62
7
 10
19.38439063
 20
6.47547607
  0
VERTEX
  8
EGA-729.PLT
 62
7
 10
19.36400000
 20
6.49375000
  0
VERTEX
  8
EGA-729.PLT
 62
7
 10
19.34206250
 20
6.51012549
  0
VERTEX
  8
EGA-729.PLT
 62
7
 10
19.31871875
 20
6.52448828
  0
VERTEX
  8
EGA-729.PLT
 62
7
 10
19.29410938
 20
6.53672412
  0
VERTEX
  8
EGA-729.PLT
 62
7
 10
19.26837500
 20
6.54671875
  0
VERTEX
  8
EGA-729.PLT
 62
7
 10
19.24165625
 20
6.55435791
  0
VERTEX
  8
EGA-729.PLT
 62
7
 10
19.21409375
 20
6.55952734
  0
VERTEX
  8
EGA-729.PLT
 62
7
 10
19.18582813
 20
6.56211279
  0
VERTEX
  8
EGA-729.PLT
 62
7
 10
19.15700000
 20
6.56200000
  0
VERTEX
  8
EGA-729.PLT
 62
7
 10
19.13624805
 20
6.55821680
  0
VERTEX
  8
EGA-729.PLT
 62
7
 10
19.11698438
 20
6.55085937
  0
VERTEX
  8
EGA-729.PLT
 62
7
 10
19.09957227
 20
6.54029102
  0
VERTEX
  8
EGA-729.PLT
 62
7
 10
19.08437500
 20
6.52687500
  0
VERTEX
  8
EGA-729.PLT
 62
7
 10
19.07175586
 20
6.51097461
  0
VERTEX
  8
EGA-729.PLT
 62
7
 10
19.06207812
 20
6.49295312
  0
VERTEX
  8
EGA-729.PLT
 62
7
 10
19.05570508
 20
6.47317383
  0
VERTEX
  8
EGA-729.PLT
 62
7
 10
19.05300000
 20
6.45200000
  0
VERTEX
  8
EGA-729.PLT
 62
7
 10
19.05421094
 20
6.43097656
  0
VERTEX
  8
EGA-729.PLT
 62
7
 10
19.05912500
 20
6.41093750
  0
VERTEX
  8
EGA-729.PLT
 62
7
 10
19.06741406
 20
6.39230469
  0
VERTEX
  8
EGA-729.PLT
 62
7
 10
19.07875000
 20
6.37550000
  0
VERTEX
  8
EGA-729.PLT
 62
7
 10
19.09280469
 20
6.36094531
  0
VERTEX
  8
EGA-729.PLT
 62
7
 10
19.10925000
 20
6.34906250
  0
VERTEX
  8
EGA-729.PLT
 62
7
 10
19.12775781
 20
6.34027344
  0
VERTEX
  8
EGA-729.PLT
 62
7
 10
19.14800000
 20
6.33500000
  0
VERTEX
  8
EGA-729.PLT
 62
7
 10
19.16335937
 20
6.33248047
  0
VERTEX
  8
EGA-729.PLT
 62
7
 10
19.17843750
 20
6.33303125
  0
VERTEX
  8
EGA-729.PLT
 62
7
 10
19.19285938
 20
6.33644141
  0
VERTEX
  8
EGA-729.PLT
 62
7
 10
19.20625000
 20
6.34250000
  0
VERTEX
  8
EGA-729.PLT
 62
7
 10
19.21823438
 20
6.35099609
  0
VERTEX
  8
EGA-729.PLT
 62
7
 10
19.22843750
 20
6.36171875
  0
VERTEX
  8
EGA-729.PLT
 62
7
 10
19.23648438
 20
6.37445703
  0
VERTEX
  8
EGA-729.PLT
 62
7
 10
19.24200000
 20
6.38900000
  0
VERTEX
  8
EGA-729.PLT
 62
7
 10
19.24489453
 20
6.40407422
  0
VERTEX
  8
EGA-729.PLT
 62
7
 10
19.24471875
 20
6.41903125
  0
VERTEX
  8
EGA-729.PLT
 62
7
 10
19.24168359
 20
6.43347266
  0
VERTEX
  8
EGA-729.PLT
 62
7
 10
19.23600000
 20
6.44700000
  0
VERTEX
  8
EGA-729.PLT
 62
7
 10
19.22787891
 20
6.45921484
  0
VERTEX
  8
EGA-729.PLT
 62
7
 10
19.21753125
 20
6.46971875
  0
VERTEX
  8
EGA-729.PLT
 62
7
 10
19.20516797
 20
6.47811328
  0
VERTEX
  8
EGA-729.PLT
 62
7
 10
19.19100000
 20
6.48400000
  0
VERTEX
  8
EGA-729.PLT
 62
7
 10
19.21537891
 20
6.48051562
  0
VERTEX
  8
EGA-729.PLT
 62
7
 10
19.23884375
 20
6.47393750
  0
VERTEX
  8
EGA-729.PLT
 62
7
 10
19.26113672
 20
6.46445313
  0
VERTEX
  8
EGA-729.PLT
 62
7
 10
19.28200000
 20
6.45225000
  0
VERTEX
  8
EGA-729.PLT
 62
7
 10
19.30117578
 20
6.43751562
  0
VERTEX
  8
EGA-729.PLT
 62
7
 10
19.31840625
 20
6.42043750
  0
VERTEX
  8
EGA-729.PLT
 62
7
 10
19.33343359
 20
6.40120313
  0
VERTEX
  8
EGA-729.PLT
 62
7
 10
19.34600000
 20
6.38000000
  0
VERTEX
  8
EGA-729.PLT
 62
7
 10
19.35574805
 20
6.35703320
  0
VERTEX
  8
EGA-729.PLT
 62
7
 10
19.36248438
 20
6.33332813
  0
VERTEX
  8
EGA-729.PLT
 62
7
 10
19.36619727
 20
6.30917773
  0
VERTEX
  8
EGA-729.PLT
 62
7
 10
19.36687500
 20
6.28487500
  0
VERTEX
  8
EGA-729.PLT
 62
7
 10
19.36450586
 20
6.26071289
  0
VERTEX
  8
EGA-729.PLT
 62
7
 10
19.35907813
 20
6.23698437
  0
VERTEX
  8
EGA-729.PLT
 62
7
 10
19.35058008
 20
6.21398242
  0
VERTEX
  8
EGA-729.PLT
 62
7
 10
19.33900000
 20
6.19200000
  0
VERTEX
  8
EGA-729.PLT
 62
7
 10
19.31093359
 20
6.16488281
  0
VERTEX
  8
EGA-729.PLT
 62
7
 10
19.28021875
 20
6.14137500
  0
VERTEX
  8
EGA-729.PLT
 62
7
 10
19.24720703
 20
6.12161719
  0
VERTEX
  8
EGA-729.PLT
 62
7
 10
19.21225000
 20
6.10575000
  0
VERTEX
  8
EGA-729.PLT
 62
7
 10
19.17569922
 20
6.09391406
  0
VERTEX
  8
EGA-729.PLT
 62
7
 10
19.13790625
 20
6.08625000
  0
VERTEX
  8
EGA-729.PLT
 62
7
 10
19.09922266
 20
6.08289844
  0
VERTEX
  8
EGA-729.PLT
 62
7
 10
19.06000000
 20
6.08400000
  0
VERTEX
  8
EGA-729.PLT
 62
7
 10
19.02147852
 20
6.08959180
  0
VERTEX
  8
EGA-729.PLT
 62
7
 10
18.98414062
 20
6.09948438
  0
VERTEX
  8
EGA-729.PLT
 62
7
 10
18.94832617
 20
6.11347852
  0
VERTEX
  8
EGA-729.PLT
 62
7
 10
18.91437500
 20
6.13137500
  0
VERTEX
  8
EGA-729.PLT
 62
7
 10
18.88262695
 20
6.15297461
  0
VERTEX
  8
EGA-729.PLT
 62
7
 10
18.85342187
 20
6.17807812
  0
VERTEX
  8
EGA-729.PLT
 62
7
 10
18.82709961
 20
6.20648633
  0
VERTEX
  8
EGA-729.PLT
 62
7
 10
18.80400000
 20
6.23800000
  0
VERTEX
  8
EGA-729.PLT
 62
7
 10
18.77190430
 20
6.27318677
  0
VERTEX
  8
EGA-729.PLT
 62
7
 10
18.74387500
 20
6.31066602
  0
VERTEX
  8
EGA-729.PLT
 62
7
 10
18.71992383
 20
6.35012866
  0
VERTEX
  8
EGA-729.PLT
 62
7
 10
18.70006250
 20
6.39126563
  0
VERTEX
  8
EGA-729.PLT
 62
7
 10
18.68430273
 20
6.43376782
  0
VERTEX
  8
EGA-729.PLT
 62
7
 10
18.67265625
 20
6.47732617
  0
VERTEX
  8
EGA-729.PLT
 62
7
 10
18.66513477
 20
6.52163159
  0
VERTEX
  8
EGA-729.PLT
 62
7
 10
18.66175000
 20
6.56637500
  0
VERTEX
  8
EGA-729.PLT
 62
7
 10
18.66251367
 20
6.61124731
  0
VERTEX
  8
EGA-729.PLT
 62
7
 10
18.66743750
 20
6.65593945
  0
VERTEX
  8
EGA-729.PLT
 62
7
 10
18.67653320
 20
6.70014233
  0
VERTEX
  8
EGA-729.PLT
 62
7
 10
18.68981250
 20
6.74354687
  0
VERTEX
  8
EGA-729.PLT
 62
7
 10
18.70728711
 20
6.78584399
  0
VERTEX
  8
EGA-729.PLT
 62
7
 10
18.72896875
 20
6.82672461
  0
VERTEX
  8
EGA-729.PLT
 62
7
 10
18.75486914
 20
6.86587964
  0
VERTEX
  8
EGA-729.PLT
 62
7
 10
18.78500000
 20
6.90300000
  0
VERTEX
  8
EGA-729.PLT
 62
7
 10
18.80862695
 20
6.93217187
  0
VERTEX
  8
EGA-729.PLT
 62
7
 10
18.83404687
 20
6.95928125
  0
VERTEX
  8
EGA-729.PLT
 62
7
 10
18.86113086
 20
6.98428125
  0
VERTEX
  8
EGA-729.PLT
 62
7
 10
18.88975000
 20
7.00712500
  0
VERTEX
  8
EGA-729.PLT
 62
7
 10
18.91977539
 20
7.02776562
  0
VERTEX
  8
EGA-729.PLT
 62
7
 10
18.95107812
 20
7.04615625
  0
VERTEX
  8
EGA-729.PLT
 62
7
 10
18.98352930
 20
7.06225000
  0
VERTEX
  8
EGA-729.PLT
 62
7
 10
19.01700000
 20
7.07600000
  0
VERTEX
  8
EGA-729.PLT
 62
7
 10
19.05136133
 20
7.08735938
  0
VERTEX
  8
EGA-729.PLT
 62
7
 10
19.08648438
 20
7.09628125
  0
VERTEX
  8
EGA-729.PLT
 62
7
 10
19.12224023
 20
7.10271875
  0
VERTEX
  8
EGA-729.PLT
 62
7
 10
19.15850000
 20
7.10662500
  0
VERTEX
  8
EGA-729.PLT
 62
7
 10
19.19513477
 20
7.10795312
  0
VERTEX
  8
EGA-729.PLT
 62
7
 10
19.23201562
 20
7.10665625
  0
VERTEX
  8
EGA-729.PLT
 62
7
 10
19.26901367
 20
7.10268750
  0
VERTEX
  8
EGA-729.PLT
 62
7
 10
19.30600000
 20
7.09600000
  0
VERTEX
  8
EGA-729.PLT
 62
7
 10
19.34224097
 20
7.08665356
  0
VERTEX
  8
EGA-729.PLT
 62
7
 10
19.37739648
 20
7.07480664
  0
VERTEX
  8
EGA-729.PLT
 62
7
 10
19.41136548
 20
7.06056030
  0
VERTEX
  8
EGA-729.PLT
 62
7
 10
19.44404688
 20
7.04401563
  0
VERTEX
  8
EGA-729.PLT
 62
7
 10
19.47533960
 20
7.02527368
  0
VERTEX
  8
EGA-729.PLT
 62
7
 10
19.50514258
 20
7.00443555
  0
VERTEX
  8
EGA-729.PLT
 62
7
 10
19.53335474
 20
6.98160229
  0
VERTEX
  8
EGA-729.PLT
 62
7
 10
19.55987500
 20
6.95687500
  0
VERTEX
  8
EGA-729.PLT
 62
7
 10
19.58460229
 20
6.93035474
  0
VERTEX
  8
EGA-729.PLT
 62
7
 10
19.60743555
 20
6.90214258
  0
VERTEX
  8
EGA-729.PLT
 62
7
 10
19.62827368
 20
6.87233960
  0
VERTEX
  8
EGA-729.PLT
 62
7
 10
19.64701563
 20
6.84104688
  0
VERTEX
  8
EGA-729.PLT
 62
7
 10
19.66356030
 20
6.80836548
  0
VERTEX
  8
EGA-729.PLT
 62
7
 10
19.67780664
 20
6.77439648
  0
VERTEX
  8
EGA-729.PLT
 62
7
 10
19.68965356
 20
6.73924097
  0
VERTEX
  8
EGA-729.PLT
 62
7
 10
19.69900000
 20
6.70300000
  0
VERTEX
  8
EGA-729.PLT
 62
7
 10
19.75900000
 20
6.66900000
  0
VERTEX
  8
EGA-729.PLT
 62
7
 10
19.75510962
 20
6.69374048
  0
VERTEX
  8
EGA-729.PLT
 62
7
 10
19.75351758
 20
6.71837695
  0
VERTEX
  8
EGA-729.PLT
 62
7
 10
19.75415503
 20
6.74278198
  0
VERTEX
  8
EGA-729.PLT
 62
7
 10
19.75695312
 20
6.76682813
  0
VERTEX
  8
EGA-729.PLT
 62
7
 10
19.76184302
 20
6.79038794
  0
VERTEX
  8
EGA-729.PLT
 62
7
 10
19.76875586
 20
6.81333398
  0
VERTEX
  8
EGA-729.PLT
 62
7
 10
19.77762280
 20
6.83553882
  0
VERTEX
  8
EGA-729.PLT
 62
7
 10
19.78837500
 20
6.85687500
  0
VERTEX
  8
EGA-729.PLT
 62
7
 10
19.80094360
 20
6.87721509
  0
VERTEX
  8
EGA-729.PLT
 62
7
 10
19.81525977
 20
6.89643164
  0
VERTEX
  8
EGA-729.PLT
 62
7
 10
19.83125464
 20
6.91439722
  0
VERTEX
  8
EGA-729.PLT
 62
7
 10
19.84885938
 20
6.93098438
  0
VERTEX
  8
EGA-729.PLT
 62
7
 10
19.86800513
 20
6.94606567
  0
VERTEX
  8
EGA-729.PLT
 62
7
 10
19.88862305
 20
6.95951367
  0
VERTEX
  8
EGA-729.PLT
 62
7
 10
19.91064429
 20
6.97120093
  0
VERTEX
  8
EGA-729.PLT
 62
7
 10
19.93400000
 20
6.98100000
  0
VERTEX
  8
EGA-729.PLT
 62
7
 10
19.95587500
 20
6.98081250
  0
VERTEX
  8
EGA-729.PLT
 62
7
 10
19.97775000
 20
6.98325000
  0
VERTEX
  8
EGA-729.PLT
 62
7
 10
19.99925000
 20
6.98831250
  0
VERTEX
  8
EGA-729.PLT
 62
7
 10
20.02000000
 20
6.99600000
  0
VERTEX
  8
EGA-729.PLT
 62
7
 10
20.04578516
 20
6.99995313
  0
VERTEX
  8
EGA-729.PLT
 62
7
 10
20.07046875
 20
7.00718750
  0
VERTEX
  8
EGA-729.PLT
 62
7
 10
20.09379297
 20
7.01751562
  0
VERTEX
  8
EGA-729.PLT
 62
7
 10
20.11550000
 20
7.03075000
  0
VERTEX
  8
EGA-729.PLT
 62
7
 10
20.13533203
 20
7.04670312
  0
VERTEX
  8
EGA-729.PLT
 62
7
 10
20.15303125
 20
7.06518750
  0
VERTEX
  8
EGA-729.PLT
 62
7
 10
20.16833984
 20
7.08601562
  0
VERTEX
  8
EGA-729.PLT
 62
7
 10
20.18100000
 20
7.10900000
  0
VERTEX
  8
EGA-729.PLT
 62
7
 10
20.19070508
 20
7.08059570
  0
VERTEX
  8
EGA-729.PLT
 62
7
 10
20.20389063
 20
7.05407813
  0
VERTEX
  8
EGA-729.PLT
 62
7
 10
20.22028711
 20
7.02974023
  0
VERTEX
  8
EGA-729.PLT
 62
7
 10
20.23962500
 20
7.00787500
  0
VERTEX
  8
EGA-729.PLT
 62
7
 10
20.26163477
 20
6.98877539
  0
VERTEX
  8
EGA-729.PLT
 62
7
 10
20.28604688
 20
6.97273437
  0
VERTEX
  8
EGA-729.PLT
 62
7
 10
20.31259180
 20
6.96004492
  0
VERTEX
  8
EGA-729.PLT
 62
7
 10
20.34100000
 20
6.95100000
  0
VERTEX
  8
EGA-729.PLT
 62
7
 10
20.35864478
 20
6.93546265
  0
VERTEX
  8
EGA-729.PLT
 62
7
 10
20.37443945
 20
6.91857617
  0
VERTEX
  8
EGA-729.PLT
 62
7
 10
20.38836206
 20
6.90049146
  0
VERTEX
  8
EGA-729.PLT
 62
7
 10
20.40039063
 20
6.88135937
  0
VERTEX
  8
EGA-729.PLT
 62
7
 10
20.41050317
 20
6.86133081
  0
VERTEX
  8
EGA-729.PLT
 62
7
 10
20.41867773
 20
6.84055664
  0
VERTEX
  8
EGA-729.PLT
 62
7
 10
20.42489233
 20
6.81918774
  0
VERTEX
  8
EGA-729.PLT
 62
7
 10
20.42912500
 20
6.79737500
  0
VERTEX
  8
EGA-729.PLT
 62
7
 10
20.43135376
 20
6.77526929
  0
VERTEX
  8
EGA-729.PLT
 62
7
 10
20.43155664
 20
6.75302148
  0
VERTEX
  8
EGA-729.PLT
 62
7
 10
20.42971167
 20
6.73078247
  0
VERTEX
  8
EGA-729.PLT
 62
7
 10
20.42579688
 20
6.70870313
  0
VERTEX
  8
EGA-729.PLT
 62
7
 10
20.41979028
 20
6.68693433
  0
VERTEX
  8
EGA-729.PLT
 62
7
 10
20.41166992
 20
6.66562695
  0
VERTEX
  8
EGA-729.PLT
 62
7
 10
20.40141382
 20
6.64493188
  0
VERTEX
  8
EGA-729.PLT
 62
7
 10
20.38900000
 20
6.62500000
  0
VERTEX
  8
EGA-729.PLT
 62
7
 10
20.42500000
 20
6.61400000
  0
VERTEX
  8
EGA-729.PLT
 62
7
 10
20.44912671
 20
6.64053760
  0
VERTEX
  8
EGA-729.PLT
 62
7
 10
20.47523242
 20
6.66425391
  0
VERTEX
  8
EGA-729.PLT
 62
7
 10
20.50309302
 20
6.68511670
  0
VERTEX
  8
EGA-729.PLT
 62
7
 10
20.53248437
 20
6.70309375
  0
VERTEX
  8
EGA-729.PLT
 62
7
 10
20.56318237
 20
6.71815283
  0
VERTEX
  8
EGA-729.PLT
 62
7
 10
20.59496289
 20
6.73026172
  0
VERTEX
  8
EGA-729.PLT
 62
7
 10
20.62760181
 20
6.73938818
  0
VERTEX
  8
EGA-729.PLT
 62
7
 10
20.66087500
 20
6.74550000
  0
VERTEX
  8
EGA-729.PLT
 62
7
 10
20.69455835
 20
6.74856494
  0
VERTEX
  8
EGA-729.PLT
 62
7
 10
20.72842773
 20
6.74855078
  0
VERTEX
  8
EGA-729.PLT
 62
7
 10
20.76225903
 20
6.74542529
  0
VERTEX
  8
EGA-729.PLT
 62
7
 10
20.79582813
 20
6.73915625
  0
VERTEX
  8
EGA-729.PLT
 62
7
 10
20.82891089
 20
6.72971143
  0
VERTEX
  8
EGA-729.PLT
 62
7
 10
20.86128320
 20
6.71705859
  0
VERTEX
  8
EGA-729.PLT
 62
7
 10
20.89272095
 20
6.70116553
  0
VERTEX
  8
EGA-729.PLT
 62
7
 10
20.92300000
 20
6.68200000
  0
VERTEX
  8
EGA-729.PLT
 62
7
 10
20.95676196
 20
6.65897021
  0
VERTEX
  8
EGA-729.PLT
 62
7
 10
20.98750195
 20
6.63318359
  0
VERTEX
  8
EGA-729.PLT
 62
7
 10
21.01515112
 20
6.60490674
  0
VERTEX
  8
EGA-729.PLT
 62
7
 10
21.03964063
 20
6.57440625
  0
VERTEX
  8
EGA-729.PLT
 62
7
 10
21.06090161
 20
6.54194873
  0
VERTEX
  8
EGA-729.PLT
 62
7
 10
21.07886523
 20
6.50780078
  0
VERTEX
  8
EGA-729.PLT
 62
7
 10
21.09346265
 20
6.47222900
  0
VERTEX
  8
EGA-729.PLT
 62
7
 10
21.10462500
 20
6.43550000
  0
VERTEX
  8
EGA-729.PLT
 62
7
 10
21.11228345
 20
6.39788037
  0
VERTEX
  8
EGA-729.PLT
 62
7
 10
21.11636914
 20
6.35963672
  0
VERTEX
  8
EGA-729.PLT
 62
7
 10
21.11681323
 20
6.32103564
  0
VERTEX
  8
EGA-729.PLT
 62
7
 10
21.11354688
 20
6.28234375
  0
VERTEX
  8
EGA-729.PLT
 62
7
 10
21.10650122
 20
6.24382764
  0
VERTEX
  8
EGA-729.PLT
 62
7
 10
21.09560742
 20
6.20575391
  0
VERTEX
  8
EGA-729.PLT
 62
7
 10
21.08079663
 20
6.16838916
  0
VERTEX
  8
EGA-729.PLT
 62
7
 10
21.06200000
 20
6.13200000
  0
VERTEX
  8
EGA-729.PLT
 62
7
 10
21.04192285
 20
6.10346216
  0
VERTEX
  8
EGA-729.PLT
 62
7
 10
21.02002344
 20
6.07675977
  0
VERTEX
  8
EGA-729.PLT
 62
7
 10
20.99642480
 20
6.05194702
  0
VERTEX
  8
EGA-729.PLT
 62
7
 10
20.97125000
 20
6.02907812
  0
VERTEX
  8
EGA-729.PLT
 62
7
 10
20.94462207
 20
6.00820728
  0
VERTEX
  8
EGA-729.PLT
 62
7
 10
20.91666406
 20
5.98938867
  0
VERTEX
  8
EGA-729.PLT
 62
7
 10
20.88749902
 20
5.97267651
  0
VERTEX
  8
EGA-729.PLT
 62
7
 10
20.85725000
 20
5.95812500
  0
VERTEX
  8
EGA-729.PLT
 62
7
 10
20.82604004
 20
5.94578833
  0
VERTEX
  8
EGA-729.PLT
 62
7
 10
20.79399219
 20
5.93572070
  0
VERTEX
  8
EGA-729.PLT
 62
7
 10
20.76122949
 20
5.92797632
  0
VERTEX
  8
EGA-729.PLT
 62
7
 10
20.72787500
 20
5.92260938
  0
VERTEX
  8
EGA-729.PLT
 62
7
 10
20.69405176
 20
5.91967407
  0
VERTEX
  8
EGA-729.PLT
 62
7
 10
20.65988281
 20
5.91922461
  0
VERTEX
  8
EGA-729.PLT
 62
7
 10
20.62549121
 20
5.92131519
  0
VERTEX
  8
EGA-729.PLT
 62
7
 10
20.59100000
 20
5.92600000
  0
VERTEX
  8
EGA-729.PLT
 62
7
 10
20.61197266
 20
5.93698242
  0
VERTEX
  8
EGA-729.PLT
 62
7
 10
20.63128125
 20
5.95029688
  0
VERTEX
  8
EGA-729.PLT
 62
7
 10
20.64876172
 20
5.96574414
  0
VERTEX
  8
EGA-729.PLT
 62
7
 10
20.66425000
 20
5.98312500
  0
VERTEX
  8
EGA-729.PLT
 62
7
 10
20.67758203
 20
6.00224023
  0
VERTEX
  8
EGA-729.PLT
 62
7
 10
20.68859375
 20
6.02289062
  0
VERTEX
  8
EGA-729.PLT
 62
7
 10
20.69712109
 20
6.04487695
  0
VERTEX
  8
EGA-729.PLT
 62
7
 10
20.70300000
 20
6.06800000
  0
VERTEX
  8
EGA-729.PLT
 62
7
 10
20.70601367
 20
6.09167578
  0
VERTEX
  8
EGA-729.PLT
 62
7
 10
20.70610938
 20
6.11528125
  0
VERTEX
  8
EGA-729.PLT
 62
7
 10
20.70336914
 20
6.13855859
  0
VERTEX
  8
EGA-729.PLT
 62
7
 10
20.69787500
 20
6.16125000
  0
VERTEX
  8
EGA-729.PLT
 62
7
 10
20.68970898
 20
6.18309766
  0
VERTEX
  8
EGA-729.PLT
 62
7
 10
20.67895313
 20
6.20384375
  0
VERTEX
  8
EGA-729.PLT
 62
7
 10
20.66568945
 20
6.22323047
  0
VERTEX
  8
EGA-729.PLT
 62
7
 10
20.65000000
 20
6.24100000
  0
VERTEX
  8
EGA-729.PLT
 62
7
 10
20.63256055
 20
6.25706641
  0
VERTEX
  8
EGA-729.PLT
 62
7
 10
20.61342188
 20
6.27071875
  0
VERTEX
  8
EGA-729.PLT
 62
7
 10
20.59285352
 20
6.28188672
  0
VERTEX
  8
EGA-729.PLT
 62
7
 10
20.57112500
 20
6.29050000
  0
VERTEX
  8
EGA-729.PLT
 62
7
 10
20.54850586
 20
6.29648828
  0
VERTEX
  8
EGA-729.PLT
 62
7
 10
20.52526562
 20
6.29978125
  0
VERTEX
  8
EGA-729.PLT
 62
7
 10
20.50167383
 20
6.30030859
  0
VERTEX
  8
EGA-729.PLT
 62
7
 10
20.47800000
 20
6.29800000
  0
VERTEX
  8
EGA-729.PLT
 62
7
 10
20.45483203
 20
6.29249609
  0
VERTEX
  8
EGA-729.PLT
 62
7
 10
20.43271875
 20
6.28434375
  0
VERTEX
  8
EGA-729.PLT
 62
7
 10
20.41187109
 20
6.27370703
  0
VERTEX
  8
EGA-729.PLT
 62
7
 10
20.39250000
 20
6.26075000
  0
VERTEX
  8
EGA-729.PLT
 62
7
 10
20.37481641
 20
6.24563672
  0
VERTEX
  8
EGA-729.PLT
 62
7
 10
20.35903125
 20
6.22853125
  0
VERTEX
  8
EGA-729.PLT
 62
7
 10
20.34535547
 20
6.20959766
  0
VERTEX
  8
EGA-729.PLT
 62
7
 10
20.33400000
 20
6.18900000
  0
VERTEX
  8
EGA-729.PLT
 62
7
 10
20.28413867
 20
6.13149219
  0
VERTEX
  8
EGA-729.PLT
 62
7
 10
20.23210938
 20
6.07600000
  0
VERTEX
  8
EGA-729.PLT
 62
7
 10
20.17799414
 20
6.02257031
  0
VERTEX
  8
EGA-729.PLT
 62
7
 10
20.12187500
 20
5.97125000
  0
VERTEX
  8
EGA-729.PLT
 62
7
 10
20.06383398
 20
5.92208594
  0
VERTEX
  8
EGA-729.PLT
 62
7
 10
20.00395312
 20
5.87512500
  0
VERTEX
  8
EGA-729.PLT
 62
7
 10
19.94231445
 20
5.83041406
  0
VERTEX
  8
EGA-729.PLT
 62
7
 10
19.87900000
 20
5.78800000
  0
VERTEX
  8
EGA-729.PLT
 62
7
 10
19.83669409
 20
5.76136548
  0
VERTEX
  8
EGA-729.PLT
 62
7
 10
19.79344336
 20
5.73659570
  0
VERTEX
  8
EGA-729.PLT
 62
7
 10
19.74931079
 20
5.71370386
  0
VERTEX
  8
EGA-729.PLT
 62
7
 10
19.70435937
 20
5.69270313
  0
VERTEX
  8
EGA-729.PLT
 62
7
 10
19.65865210
 20
5.67360669
  0
VERTEX
  8
EGA-729.PLT
 62
7
 10
19.61225195
 20
5.65642773
  0
VERTEX
  8
EGA-729.PLT
 62
7
 10
19.56522192
 20
5.64117944
  0
VERTEX
  8
EGA-729.PLT
 62
7
 10
19.51762500
 20
5.62787500
  0
VERTEX
  8
EGA-729.PLT
 62
7
 10
19.46952417
 20
5.61652759
  0
VERTEX
  8
EGA-729.PLT
 62
7
 10
19.42098242
 20
5.60715039
  0
VERTEX
  8
EGA-729.PLT
 62
7
 10
19.37206274
 20
5.59975659
  0
VERTEX
  8
EGA-729.PLT
 62
7
 10
19.32282813
 20
5.59435937
  0
VERTEX
  8
EGA-729.PLT
 62
7
 10
19.27334155
 20
5.59097192
  0
VERTEX
  8
EGA-729.PLT
 62
7
 10
19.22366602
 20
5.58960742
  0
VERTEX
  8
EGA-729.PLT
 62
7
 10
19.17386450
 20
5.59027905
  0
VERTEX
  8
EGA-729.PLT
 62
7
 10
19.12400000
 20
5.59300000
  0
VERTEX
  8
EGA-729.PLT
 62
7
 10
19.04245508
 20
5.60134375
  0
VERTEX
  8
EGA-729.PLT
 62
7
 10
18.96139063
 20
5.61287500
  0
VERTEX
  8
EGA-729.PLT
 62
7
 10
18.88091211
 20
5.62759375
  0
VERTEX
  8
EGA-729.PLT
 62
7
 10
18.80112500
 20
5.64550000
  0
VERTEX
  8
EGA-729.PLT
 62
7
 10
18.72213477
 20
5.66659375
  0
VERTEX
  8
EGA-729.PLT
 62
7
 10
18.64404688
 20
5.69087500
  0
VERTEX
  8
EGA-729.PLT
 62
7
 10
18.56696680
 20
5.71834375
  0
VERTEX
  8
EGA-729.PLT
 62
7
 10
18.49100000
 20
5.74900000
  0
VERTEX
  8
EGA-729.PLT
 62
7
 10
18.19600000
 20
5.96400000
  0
VERTEX
  8
EGA-729.PLT
 62
7
 10
18.13600000
 20
5.94100000
  0
VERTEX
  8
EGA-729.PLT
 62
7
 10
18.16064380
 20
5.91905200
  0
VERTEX
  8
EGA-729.PLT
 62
7
 10
18.18207227
 20
5.89502539
  0
VERTEX
  8
EGA-729.PLT
 62
7
 10
18.20028101
 20
5.86920874
  0
VERTEX
  8
EGA-729.PLT
 62
7
 10
18.21526563
 20
5.84189062
  0
VERTEX
  8
EGA-729.PLT
 62
7
 10
18.22702173
 20
5.81335962
  0
VERTEX
  8
EGA-729.PLT
 62
7
 10
18.23554492
 20
5.78390430
  0
VERTEX
  8
EGA-729.PLT
 62
7
 10
18.24083081
 20
5.75381323
  0
VERTEX
  8
EGA-729.PLT
 62
7
 10
18.24287500
 20
5.72337500
  0
VERTEX
  8
EGA-729.PLT
 62
7
 10
18.24167310
 20
5.69287817
  0
VERTEX
  8
EGA-729.PLT
 62
7
 10
18.23722070
 20
5.66261133
  0
VERTEX
  8
EGA-729.PLT
 62
7
 10
18.22951343
 20
5.63286304
  0
VERTEX
  8
EGA-729.PLT
 62
7
 10
18.21854688
 20
5.60392188
  0
VERTEX
  8
EGA-729.PLT
 62
7
 10
18.20431665
 20
5.57607642
  0
VERTEX
  8
EGA-729.PLT
 62
7
 10
18.18681836
 20
5.54961523
  0
VERTEX
  8
EGA-729.PLT
 62
7
 10
18.16604761
 20
5.52482690
  0
VERTEX
  8
EGA-729.PLT
 62
7
 10
18.14200000
 20
5.50200000
  0
VERTEX
  8
EGA-729.PLT
 62
7
 10
18.10819141
 20
5.47717773
  0
VERTEX
  8
EGA-729.PLT
 62
7
 10
18.07815625
 20
5.44873437
  0
VERTEX
  8
EGA-729.PLT
 62
7
 10
18.05210547
 20
5.41708008
  0
VERTEX
  8
EGA-729.PLT
 62
7
 10
18.03025000
 20
5.38262500
  0
VERTEX
  8
EGA-729.PLT
 62
7
 10
18.01280078
 20
5.34577930
  0
VERTEX
  8
EGA-729.PLT
 62
7
 10
17.99996875
 20
5.30695312
  0
VERTEX
  8
EGA-729.PLT
 62
7
 10
17.99196484
 20
5.26655664
  0
VERTEX
  8
EGA-729.PLT
 62
7
 10
17.98900000
 20
5.22500000
  0
VERTEX
  8
EGA-729.PLT
 62
7
 10
17.95841797
 20
5.26274609
  0
VERTEX
  8
EGA-729.PLT
 62
7
 10
17.92396875
 20
5.29634375
  0
VERTEX
  8
EGA-729.PLT
 62
7
 10
17.88609766
 20
5.32558203
  0
VERTEX
  8
EGA-729.PLT
 62
7
 10
17.84525000
 20
5.35025000
  0
VERTEX
  8
EGA-729.PLT
 62
7
 10
17.80187109
 20
5.37013672
  0
VERTEX
  8
EGA-729.PLT
 62
7
 10
17.75640625
 20
5.38503125
  0
VERTEX
  8
EGA-729.PLT
 62
7
 10
17.70930078
 20
5.39472266
  0
VERTEX
  8
EGA-729.PLT
 62
7
 10
17.66100000
 20
5.39900000
  0
VERTEX
  8
EGA-729.PLT
 62
7
 10
17.63556055
 20
5.40544189
  0
VERTEX
  8
EGA-729.PLT
 62
7
 10
17.61104688
 20
5.41383203
  0
VERTEX
  8
EGA-729.PLT
 62
7
 10
17.58754102
 20
5.42407959
  0
VERTEX
  8
EGA-729.PLT
 62
7
 10
17.56512500
 20
5.43609375
  0
VERTEX
  8
EGA-729.PLT
 62
7
 10
17.54388086
 20
5.44978369
  0
VERTEX
  8
EGA-729.PLT
 62
7
 10
17.52389063
 20
5.46505859
  0
VERTEX
  8
EGA-729.PLT
 62
7
 10
17.50523633
 20
5.48182764
  0
VERTEX
  8
EGA-729.PLT
 62
7
 10
17.48800000
 20
5.50000000
  0
VERTEX
  8
EGA-729.PLT
 62
7
 10
17.47226367
 20
5.51948486
  0
VERTEX
  8
EGA-729.PLT
 62
7
 10
17.45810937
 20
5.54019141
  0
VERTEX
  8
EGA-729.PLT
 62
7
 10
17.44561914
 20
5.56202881
  0
VERTEX
  8
EGA-729.PLT
 62
7
 10
17.43487500
 20
5.58490625
  0
VERTEX
  8
EGA-729.PLT
 62
7
 10
17.42595898
 20
5.60873291
  0
VERTEX
  8
EGA-729.PLT
 62
7
 10
17.41895313
 20
5.63341797
  0
VERTEX
  8
EGA-729.PLT
 62
7
 10
17.41393945
 20
5.65887061
  0
VERTEX
  8
EGA-729.PLT
 62
7
 10
17.41100000
 20
5.68500000
  0
VERTEX
  8
EGA-729.PLT
 62
7
 10
17.35000000
 20
5.64900000
  0
VERTEX
  8
EGA-729.PLT
 62
7
 10
17.33052856
 20
5.58361353
  0
VERTEX
  8
EGA-729.PLT
 62
7
 10
17.30672852
 20
5.52031445
  0
VERTEX
  8
EGA-729.PLT
 62
7
 10
17.27877124
 20
5.45926831
  0
VERTEX
  8
EGA-729.PLT
 62
7
 10
17.24682813
 20
5.40064063
  0
VERTEX
  8
EGA-729.PLT
 62
7
 10
17.21107056
 20
5.34459692
  0
VERTEX
  8
EGA-729.PLT
 62
7
 10
17.17166992
 20
5.29130273
  0
VERTEX
  8
EGA-729.PLT
 62
7
 10
17.12879761
 20
5.24092358
  0
VERTEX
  8
EGA-729.PLT
 62
7
 10
17.08262500
 20
5.19362500
  0
VERTEX
  8
EGA-729.PLT
 62
7
 10
17.03332349
 20
5.14957251
  0
VERTEX
  8
EGA-729.PLT
 62
7
 10
16.98106445
 20
5.10893164
  0
VERTEX
  8
EGA-729.PLT
 62
7
 10
16.92601929
 20
5.07186792
  0
VERTEX
  8
EGA-729.PLT
 62
7
 10
16.86835938
 20
5.03854687
  0
VERTEX
  8
EGA-729.PLT
 62
7
 10
16.80825610
 20
5.00913403
  0
VERTEX
  8
EGA-729.PLT
 62
7
 10
16.74588086
 20
4.98379492
  0
VERTEX
  8
EGA-729.PLT
 62
7
 10
16.68140503
 20
4.96269507
  0
VERTEX
  8
EGA-729.PLT
 62
7
 10
16.61500000
 20
4.94600000
  0
VERTEX
  8
EGA-729.PLT
 62
7
 10
16.54776050
 20
4.93399805
  0
VERTEX
  8
EGA-729.PLT
 62
7
 10
16.48044336
 20
4.92681250
  0
VERTEX
  8
EGA-729.PLT
 62
7
 10
16.41327563
 20
4.92436133
  0
VERTEX
  8
EGA-729.PLT
 62
7
 10
16.34648437
 20
4.92656250
  0
VERTEX
  8
EGA-729.PLT
 62
7
 10
16.28029663
 20
4.93333398
  0
VERTEX
  8
EGA-729.PLT
 62
7
 10
16.21493945
 20
4.94459375
  0
VERTEX
  8
EGA-729.PLT
 62
7
 10
16.15063989
 20
4.96025977
  0
VERTEX
  8
EGA-729.PLT
 62
7
 10
16.08762500
 20
4.98025000
  0
VERTEX
  8
EGA-729.PLT
 62
7
 10
16.02612183
 20
5.00448242
  0
VERTEX
  8
EGA-729.PLT
 62
7
 10
15.96635742
 20
5.03287500
  0
VERTEX
  8
EGA-729.PLT
 62
7
 10
15.90855884
 20
5.06534570
  0
VERTEX
  8
EGA-729.PLT
 62
7
 10
15.85295313
 20
5.10181250
  0
VERTEX
  8
EGA-729.PLT
 62
7
 10
15.79976733
 20
5.14219336
  0
VERTEX
  8
EGA-729.PLT
 62
7
 10
15.74922852
 20
5.18640625
  0
VERTEX
  8
EGA-729.PLT
 62
7
 10
15.70156372
 20
5.23436914
  0
VERTEX
  8
EGA-729.PLT
 62
7
 10
15.65700000
 20
5.28600000
  0
VERTEX
  8
EGA-729.PLT
 62
7
 10
15.64421875
 20
5.30347998
  0
VERTEX
  8
EGA-729.PLT
 62
7
 10
15.62998437
 20
5.31915234
  0
VERTEX
  8
EGA-729.PLT
 62
7
 10
15.61446094
 20
5.33299072
  0
VERTEX
  8
EGA-729.PLT
 62
7
 10
15.59781250
 20
5.34496875
  0
VERTEX
  8
EGA-729.PLT
 62
7
 10
15.58020313
 20
5.35506006
  0
VERTEX
  8
EGA-729.PLT
 62
7
 10
15.56179688
 20
5.36323828
  0
VERTEX
  8
EGA-729.PLT
 62
7
 10
15.54275781
 20
5.36947705
  0
VERTEX
  8
EGA-729.PLT
 62
7
 10
15.52325000
 20
5.37375000
  0
VERTEX
  8
EGA-729.PLT
 62
7
 10
15.50343750
 20
5.37603076
  0
VERTEX
  8
EGA-729.PLT
 62
7
 10
15.48348438
 20
5.37629297
  0
VERTEX
  8
EGA-729.PLT
 62
7
 10
15.46355469
 20
5.37451025
  0
VERTEX
  8
EGA-729.PLT
 62
7
 10
15.44381250
 20
5.37065625
  0
VERTEX
  8
EGA-729.PLT
 62
7
 10
15.42442188
 20
5.36470459
  0
VERTEX
  8
EGA-729.PLT
 62
7
 10
15.40554688
 20
5.35662891
  0
VERTEX
  8
EGA-729.PLT
 62
7
 10
15.38735156
 20
5.34640283
  0
VERTEX
  8
EGA-729.PLT
 62
7
 10
15.37000000
 20
5.33400000
  0
VERTEX
  8
EGA-729.PLT
 62
7
 10
15.35407642
 20
5.31980103
  0
VERTEX
  8
EGA-729.PLT
 62
7
 10
15.34006445
 20
5.30431445
  0
VERTEX
  8
EGA-729.PLT
 62
7
 10
15.32797729
 20
5.28770581
  0
VERTEX
  8
EGA-729.PLT
 62
7
 10
15.31782813
 20
5.27014062
  0
VERTEX
  8
EGA-729.PLT
 62
7
 10
15.30963013
 20
5.25178442
  0
VERTEX
  8
EGA-729.PLT
 62
7
 10
15.30339648
 20
5.23280273
  0
VERTEX
  8
EGA-729.PLT
 62
7
 10
15.29914038
 20
5.21336108
  0
VERTEX
  8
EGA-729.PLT
 62
7
 10
15.29687500
 20
5.19362500
  0
VERTEX
  8
EGA-729.PLT
 62
7
 10
15.29661353
 20
5.17376001
  0
VERTEX
  8
EGA-729.PLT
 62
7
 10
15.29836914
 20
5.15393164
  0
VERTEX
  8
EGA-729.PLT
 62
7
 10
15.30215503
 20
5.13430542
  0
VERTEX
  8
EGA-729.PLT
 62
7
 10
15.30798438
 20
5.11504688
  0
VERTEX
  8
EGA-729.PLT
 62
7
 10
15.31587036
 20
5.09632153
  0
VERTEX
  8
EGA-729.PLT
 62
7
 10
15.32582617
 20
5.07829492
  0
VERTEX
  8
EGA-729.PLT
 62
7
 10
15.33786499
 20
5.06113257
  0
VERTEX
  8
EGA-729.PLT
 62
7
 10
15.35200000
 20
5.04500000
  0
VERTEX
  8
EGA-729.PLT
 62
7
 10
15.31691895
 20
5.05009302
  0
VERTEX
  8
EGA-729.PLT
 62
7
 10
15.28341406
 20
5.05883789
  0
VERTEX
  8
EGA-729.PLT
 62
7
 10
15.25165527
 20
5.07099585
  0
VERTEX
  8
EGA-729.PLT
 62
7
 10
15.22181250
 20
5.08632812
  0
VERTEX
  8
EGA-729.PLT
 62
7
 10
15.19405566
 20
5.10459595
  0
VERTEX
  8
EGA-729.PLT
 62
7
 10
15.16855469
 20
5.12556055
  0
VERTEX
  8
EGA-729.PLT
 62
7
 10
15.14547949
 20
5.14898315
  0
VERTEX
  8
EGA-729.PLT
 62
7
 10
15.12500000
 20
5.17462500
  0
VERTEX
  8
EGA-729.PLT
 62
7
 10
15.10728613
 20
5.20224731
  0
VERTEX
  8
EGA-729.PLT
 62
7
 10
15.09250781
 20
5.23161133
  0
VERTEX
  8
EGA-729.PLT
 62
7
 10
15.08083496
 20
5.26247827
  0
VERTEX
  8
EGA-729.PLT
 62
7
 10
15.07243750
 20
5.29460938
  0
VERTEX
  8
EGA-729.PLT
 62
7
 10
15.06748535
 20
5.32776587
  0
VERTEX
  8
EGA-729.PLT
 62
7
 10
15.06614844
 20
5.36170898
  0
VERTEX
  8
EGA-729.PLT
 62
7
 10
15.06859668
 20
5.39619995
  0
VERTEX
  8
EGA-729.PLT
 62
7
 10
15.07500000
 20
5.43100000
  0
VERTEX
  8
EGA-729.PLT
 62
7
 10
15.08521045
 20
5.46487988
  0
VERTEX
  8
EGA-729.PLT
 62
7
 10
15.09879297
 20
5.49667969
  0
VERTEX
  8
EGA-729.PLT
 62
7
 10
15.11548682
 20
5.52626465
  0
VERTEX
  8
EGA-729.PLT
 62
7
 10
15.13503125
 20
5.55350000
  0
VERTEX
  8
EGA-729.PLT
 62
7
 10
15.15716553
 20
5.57825098
  0
VERTEX
  8
EGA-729.PLT
 62
7
 10
15.18162891
 20
5.60038281
  0
VERTEX
  8
EGA-729.PLT
 62
7
 10
15.20816064
 20
5.61976074
  0
VERTEX
  8
EGA-729.PLT
 62
7
 10
15.23650000
 20
5.63625000
  0
VERTEX
  8
EGA-729.PLT
 62
7
 10
15.26638623
 20
5.64971582
  0
VERTEX
  8
EGA-729.PLT
 62
7
 10
15.29755859
 20
5.66002344
  0
VERTEX
  8
EGA-729.PLT
 62
7
 10
15.32975635
 20
5.66703809
  0
VERTEX
  8
EGA-729.PLT
 62
7
 10
15.36271875
 20
5.67062500
  0
VERTEX
  8
EGA-729.PLT
 62
7
 10
15.39618506
 20
5.67064941
  0
VERTEX
  8
EGA-729.PLT
 62
7
 10
15.42989453
 20
5.66697656
  0
VERTEX
  8
EGA-729.PLT
 62
7
 10
15.46358643
 20
5.65947168
  0
VERTEX
  8
EGA-729.PLT
 62
7
 10
15.49700000
 20
5.64800000
  0
VERTEX
  8
EGA-729.PLT
 62
7
 10
15.46555664
 20
5.66830078
  0
VERTEX
  8
EGA-729.PLT
 62
7
 10
15.43895312
 20
5.69340625
  0
VERTEX
  8
EGA-729.PLT
 62
7
 10
15.41752930
 20
5.72249609
  0
VERTEX
  8
EGA-729.PLT
 62
7
 10
15.40162500
 20
5.75475000
  0
VERTEX
  8
EGA-729.PLT
 62
7
 10
15.39158008
 20
5.78934766
  0
VERTEX
  8
EGA-729.PLT
 62
7
 10
15.38773438
 20
5.82546875
  0
VERTEX
  8
EGA-729.PLT
 62
7
 10
15.39042773
 20
5.86229297
  0
VERTEX
  8
EGA-729.PLT
 62
7
 10
15.40000000
 20
5.89900000
  0
VERTEX
  8
EGA-729.PLT
 62
7
 10
15.42698438
 20
5.94889062
  0
VERTEX
  8
EGA-729.PLT
 62
7
 10
15.44637500
 20
6.00187500
  0
VERTEX
  8
EGA-729.PLT
 62
7
 10
15.45807813
 20
6.05692187
  0
VERTEX
  8
EGA-729.PLT
 62
7
 10
15.46200000
 20
6.11300000
  0
VERTEX
  8
EGA-729.PLT
 62
7
 10
15.48542383
 20
6.10052734
  0
VERTEX
  8
EGA-729.PLT
 62
7
 10
15.51232813
 20
6.09253125
  0
VERTEX
  8
EGA-729.PLT
 62
7
 10
15.54178711
 20
6.08814453
  0
VERTEX
  8
EGA-729.PLT
 62
7
 10
15.57287500
 20
6.08650000
  0
VERTEX
  8
EGA-729.PLT
 62
7
 10
15.60466602
 20
6.08673047
  0
VERTEX
  8
EGA-729.PLT
 62
7
 10
15.63623438
 20
6.08796875
  0
VERTEX
  8
EGA-729.PLT
 62
7
 10
15.66665430
 20
6.08934766
  0
SEQEND
  0
POLYLINE
  8
EGA-729.PLT
 62
7
 66
1
 70
1
  0
VERTEX
  8
EGA-729.PLT
 62
7
 10
10.92900000
 20
5.67100000
  0
VERTEX
  8
EGA-729.PLT
 62
7
 10
10.91269336
 20
5.65090820
  0
VERTEX
  8
EGA-729.PLT
 62
7
 10
10.89829688
 20
5.62970312
  0
VERTEX
  8
EGA-729.PLT
 62
7
 10
10.88584570
 20
5.60749023
  0
VERTEX
  8
EGA-729.PLT
 62
7
 10
10.87537500
 20
5.58437500
  0
VERTEX
  8
EGA-729.PLT
 62
7
 10
10.86691992
 20
5.56046289
  0
VERTEX
  8
EGA-729.PLT
 62
7
 10
10.86051563
 20
5.53585938
  0
VERTEX
  8
EGA-729.PLT
 62
7
 10
10.85619727
 20
5.51066992
  0
VERTEX
  8
EGA-729.PLT
 62
7
 10
10.85400000
 20
5.48500000
  0
VERTEX
  8
EGA-729.PLT
 62
7
 10
10.82300000
 20
5.49700000
  0
VERTEX
  8
EGA-729.PLT
 62
7
 10
10.64075000
 20
5.54537500
  0
VERTEX
  8
EGA-729.PLT
 62
7
 10
10.45700000
 20
5.58700000
  0
VERTEX
  8
EGA-729.PLT
 62
7
 10
10.42439258
 20
5.59610352
  0
VERTEX
  8
EGA-729.PLT
 62
7
 10
10.39132812
 20
5.60095313
  0
VERTEX
  8
EGA-729.PLT
 62
7
 10
10.35819336
 20
5.60160742
  0
VERTEX
  8
EGA-729.PLT
 62
7
 10
10.32537500
 20
5.59812500
  0
VERTEX
  8
EGA-729.PLT
 62
7
 10
10.29325977
 20
5.59056445
  0
VERTEX
  8
EGA-729.PLT
 62
7
 10
10.26223438
 20
5.57898438
  0
VERTEX
  8
EGA-729.PLT
 62
7
 10
10.23268555
 20
5.56344336
  0
VERTEX
  8
EGA-729.PLT
 62
7
 10
10.20500000
 20
5.54400000
  0
VERTEX
  8
EGA-729.PLT
 62
7
 10
10.22417188
 20
5.49305859
  0
VERTEX
  8
EGA-729.PLT
 62
7
 10
10.23818750
 20
5.44096875
  0
VERTEX
  8
EGA-729.PLT
 62
7
 10
10.24704688
 20
5.38808203
  0
VERTEX
  8
EGA-729.PLT
 62
7
 10
10.25075000
 20
5.33475000
  0
VERTEX
  8
EGA-729.PLT
 62
7
 10
10.24929688
 20
5.28132422
  0
VERTEX
  8
EGA-729.PLT
 62
7
 10
10.24268750
 20
5.22815625
  0
VERTEX
  8
EGA-729.PLT
 62
7
 10
10.23092188
 20
5.17559766
  0
VERTEX
  8
EGA-729.PLT
 62
7
 10
10.21400000
 20
5.12400000
  0
VERTEX
  8
EGA-729.PLT
 62
7
 10
10.19857739
 20
5.08758838
  0
VERTEX
  8
EGA-729.PLT
 62
7
 10
10.18122852
 20
5.05226953
  0
VERTEX
  8
EGA-729.PLT
 62
7
 10
10.16201929
 20
5.01810498
  0
VERTEX
  8
EGA-729.PLT
 62
7
 10
10.14101563
 20
4.98515625
  0
VERTEX
  8
EGA-729.PLT
 62
7
 10
10.11828345
 20
4.95348486
  0
VERTEX
  8
EGA-729.PLT
 62
7
 10
10.09388867
 20
4.92315234
  0
VERTEX
  8
EGA-729.PLT
 62
7
 10
10.06789722
 20
4.89422021
  0
VERTEX
  8
EGA-729.PLT
 62
7
 10
10.04037500
 20
4.86675000
  0
VERTEX
  8
EGA-729.PLT
 62
7
 10
10.01138794
 20
4.84080322
  0
VERTEX
  8
EGA-729.PLT
 62
7
 10
9.98100195
 20
4.81644141
  0
VERTEX
  8
EGA-729.PLT
 62
7
 10
9.94928296
 20
4.79372607
  0
VERTEX
  8
EGA-729.PLT
 62
7
 10
9.91629688
 20
4.77271875
  0
VERTEX
  8
EGA-729.PLT
 62
7
 10
9.88210962
 20
4.75348096
  0
VERTEX
  8
EGA-729.PLT
 62
7
 10
9.84678711
 20
4.73607422
  0
VERTEX
  8
EGA-729.PLT
 62
7
 10
9.81039526
 20
4.72056006
  0
VERTEX
  8
EGA-729.PLT
 62
7
 10
9.77300000
 20
4.70700000
  0
VERTEX
  8
EGA-729.PLT
 62
7
 10
9.77840625
 20
4.74287500
  0
VERTEX
  8
EGA-729.PLT
 62
7
 10
9.79000000
 20
4.77650000
  0
VERTEX
  8
EGA-729.PLT
 62
7
 10
9.80759375
 20
4.80712500
  0
VERTEX
  8
EGA-729.PLT
 62
7
 10
9.83100000
 20
4.83400000
  0
VERTEX
  8
EGA-729.PLT
 62
7
 10
9.77631250
 20
4.83401563
  0
VERTEX
  8
EGA-729.PLT
 62
7
 10
9.72200000
 20
4.82812500
  0
VERTEX
  8
EGA-729.PLT
 62
7
 10
9.66843750
 20
4.81642187
  0
VERTEX
  8
EGA-729.PLT
 62
7
 10
9.61600000
 20
4.79900000
  0
VERTEX
  8
EGA-729.PLT
 62
7
 10
9.57635937
 20
4.78576562
  0
VERTEX
  8
EGA-729.PLT
 62
7
 10
9.54037500
 20
4.76587500
  0
VERTEX
  8
EGA-729.PLT
 62
7
 10
9.50870313
 20
4.73979687
  0
VERTEX
  8
EGA-729.PLT
 62
7
 10
9.48200000
 20
4.70800000
  0
VERTEX
  8
EGA-729.PLT
 62
7
 10
9.46982031
 20
4.68767773
  0
VERTEX
  8
EGA-729.PLT
 62
7
 10
9.45956250
 20
4.66654687
  0
VERTEX
  8
EGA-729.PLT
 62
7
 10
9.45127344
 20
4.64473633
  0
VERTEX
  8
EGA-729.PLT
 62
7
 10
9.44500000
 20
4.62237500
  0
VERTEX
  8
EGA-729.PLT
 62
7
 10
9.44078906
 20
4.59959180
  0
VERTEX
  8
EGA-729.PLT
 62
7
 10
9.43868750
 20
4.57651562
  0
VERTEX
  8
EGA-729.PLT
 62
7
 10
9.43874219
 20
4.55327539
  0
VERTEX
  8
EGA-729.PLT
 62
7
 10
9.44100000
 20
4.53000000
  0
VERTEX
  8
EGA-729.PLT
 62
7
 10
9.40155273
 20
4.55397266
  0
VERTEX
  8
EGA-729.PLT
 62
7
 10
9.36429688
 20
4.58078125
  0
VERTEX
  8
EGA-729.PLT
 62
7
 10
9.32936133
 20
4.61026172
  0
VERTEX
  8
EGA-729.PLT
 62
7
 10
9.29687500
 20
4.64225000
  0
VERTEX
  8
EGA-729.PLT
 62
7
 10
9.26696680
 20
4.67658203
  0
VERTEX
  8
EGA-729.PLT
 62
7
 10
9.23976563
 20
4.71309375
  0
VERTEX
  8
EGA-729.PLT
 62
7
 10
9.21540039
 20
4.75162109
  0
VERTEX
  8
EGA-729.PLT
 62
7
 10
9.19400000
 20
4.79200000
  0
VERTEX
  8
EGA-729.PLT
 62
7
 10
9.16742383
 20
4.85920312
  0
VERTEX
  8
EGA-729.PLT
 62
7
 10
9.14845312
 20
4.92837500
  0
VERTEX
  8
EGA-729.PLT
 62
7
 10
9.13709961
 20
4.99885938
  0
VERTEX
  8
EGA-729.PLT
 62
7
 10
9.13337500
 20
5.07000000
  0
VERTEX
  8
EGA-729.PLT
 62
7
 10
9.13729102
 20
5.14114063
  0
VERTEX
  8
EGA-729.PLT
 62
7
 10
9.14885938
 20
5.21162500
  0
VERTEX
  8
EGA-729.PLT
 62
7
 10
9.16809180
 20
5.28079688
  0
VERTEX
  8
EGA-729.PLT
 62
7
 10
9.19500000
 20
5.34800000
  0
VERTEX
  8
EGA-729.PLT
 62
7
 10
9.16543750
 20
5.34082812
  0
VERTEX
  8
EGA-729.PLT
 62
7
 10
9.13550000
 20
5.33712500
  0
VERTEX
  8
EGA-729.PLT
 62
7
 10
9.10556250
 20
5.33660938
  0
VERTEX
  8
EGA-729.PLT
 62
7
 10
9.07600000
 20
5.33900000
  0
VERTEX
  8
EGA-729.PLT
 62
7
 10
9.10340820
 20
5.39954883
  0
VERTEX
  8
EGA-729.PLT
 62
7
 10
9.13664063
 20
5.45645313
  0
VERTEX
  8
EGA-729.PLT
 62
7
 10
9.17533398
 20
5.50934961
  0
VERTEX
  8
EGA-729.PLT
 62
7
 10
9.21912500
 20
5.55787500
  0
VERTEX
  8
EGA-729.PLT
 62
7
 10
9.26765039
 20
5.60166602
  0
VERTEX
  8
EGA-729.PLT
 62
7
 10
9.32054687
 20
5.64035938
  0
VERTEX
  8
EGA-729.PLT
 62
7
 10
9.37745117
 20
5.67359180
  0
VERTEX
  8
EGA-729.PLT
 62
7
 10
9.43800000
 20
5.70100000
  0
VERTEX
  8
EGA-729.PLT
 62
7
 10
9.50817578
 20
5.72177344
  0
VERTEX
  8
EGA-729.PLT
 62
7
 10
9.57959375
 20
5.73537500
  0
VERTEX
  8
EGA-729.PLT
 62
7
 10
9.65171484
 20
5.74185156
  0
VERTEX
  8
EGA-729.PLT
 62
7
 10
9.72400000
 20
5.74125000
  0
VERTEX
  8
EGA-729.PLT
 62
7
 10
9.79591016
 20
5.73361719
  0
VERTEX
  8
EGA-729.PLT
 62
7
 10
9.86690625
 20
5.71900000
  0
VERTEX
  8
EGA-729.PLT
 62
7
 10
9.93644922
 20
5.69744531
  0
VERTEX
  8
EGA-729.PLT
 62
7
 10
10.00400000
 20
5.66900000
  0
VERTEX
  8
EGA-729.PLT
 62
7
 10
10.07687500
 20
5.70500000
  0
VERTEX
  8
EGA-729.PLT
 62
7
 10
10.15200000
 20
5.73500000
  0
VERTEX
  8
EGA-729.PLT
 62
7
 10
10.03434375
 20
5.78706250
  0
VERTEX
  8
EGA-729.PLT
 62
7
 10
9.91425000
 20
5.83800000
  0
VERTEX
  8
EGA-729.PLT
 62
7
 10
9.79228125
 20
5.88743750
  0
VERTEX
  8
EGA-729.PLT
 62
7
 10
9.66900000
 20
5.93500000
  0
VERTEX
  8
EGA-729.PLT
 62
7
 10
9.61522852
 20
5.89597070
  0
VERTEX
  8
EGA-729.PLT
 62
7
 10
9.55907812
 20
5.86145312
  0
VERTEX
  8
EGA-729.PLT
 62
7
 10
9.50079492
 20
5.83155273
  0
VERTEX
  8
EGA-729.PLT
 62
7
 10
9.44062500
 20
5.80637500
  0
VERTEX
  8
EGA-729.PLT
 62
7
 10
9.37881445
 20
5.78602539
  0
VERTEX
  8
EGA-729.PLT
 62
7
 10
9.31560937
 20
5.77060938
  0
VERTEX
  8
EGA-729.PLT
 62
7
 10
9.25125586
 20
5.76023242
  0
VERTEX
  8
EGA-729.PLT
 62
7
 10
9.18600000
 20
5.75500000
  0
VERTEX
  8
EGA-729.PLT
 62
7
 10
9.14896021
 20
5.75350513
  0
VERTEX
  8
EGA-729.PLT
 62
7
 10
9.11215039
 20
5.75424414
  0
VERTEX
  8
EGA-729.PLT
 62
7
 10
9.07565991
 20
5.75717749
  0
VERTEX
  8
EGA-729.PLT
 62
7
 10
9.03957813
 20
5.76226563
  0
VERTEX
  8
EGA-729.PLT
 62
7
 10
9.00399438
 20
5.76946899
  0
VERTEX
  8
EGA-729.PLT
 62
7
 10
8.96899805
 20
5.77874805
  0
VERTEX
  8
EGA-729.PLT
 62
7
 10
8.93467847
 20
5.79006323
  0
VERTEX
  8
EGA-729.PLT
 62
7
 10
8.90112500
 20
5.80337500
  0
VERTEX
  8
EGA-729.PLT
 62
7
 10
8.86842700
 20
5.81864380
  0
VERTEX
  8
EGA-729.PLT
 62
7
 10
8.83667383
 20
5.83583008
  0
VERTEX
  8
EGA-729.PLT
 62
7
 10
8.80595483
 20
5.85489429
  0
VERTEX
  8
EGA-729.PLT
 62
7
 10
8.77635938
 20
5.87579687
  0
VERTEX
  8
EGA-729.PLT
 62
7
 10
8.74797681
 20
5.89849829
  0
VERTEX
  8
EGA-729.PLT
 62
7
 10
8.72089648
 20
5.92295898
  0
VERTEX
  8
EGA-729.PLT
 62
7
 10
8.69520776
 20
5.94913940
  0
VERTEX
  8
EGA-729.PLT
 62
7
 10
8.67100000
 20
5.97700000
  0
VERTEX
  8
EGA-729.PLT
 62
7
 10
8.70762500
 20
5.98509375
  0
VERTEX
  8
EGA-729.PLT
 62
7
 10
8.74500000
 20
5.98700000
  0
VERTEX
  8
EGA-729.PLT
 62
7
 10
8.78237500
 20
5.98290625
  0
VERTEX
  8
EGA-729.PLT
 62
7
 10
8.81900000
 20
5.97300000
  0
VERTEX
  8
EGA-729.PLT
 62
7
 10
8.80524805
 20
6.01908398
  0
VERTEX
  8
EGA-729.PLT
 62
7
 10
8.78735937
 20
6.06342188
  0
VERTEX
  8
EGA-729.PLT
 62
7
 10
8.76550977
 20
6.10576758
  0
VERTEX
  8
EGA-729.PLT
 62
7
 10
8.73987500
 20
6.14587500
  0
VERTEX
  8
EGA-729.PLT
 62
7
 10
8.71063086
 20
6.18349805
  0
VERTEX
  8
EGA-729.PLT
 62
7
 10
8.67795313
 20
6.21839062
  0
VERTEX
  8
EGA-729.PLT
 62
7
 10
8.64201758
 20
6.25030664
  0
VERTEX
  8
EGA-729.PLT
 62
7
 10
8.60300000
 20
6.27900000
  0
VERTEX
  8
EGA-729.PLT
 62
7
 10
8.56638281
 20
6.29812500
  0
VERTEX
  8
EGA-729.PLT
 62
7
 10
8.52812500
 20
6.31200000
  0
VERTEX
  8
EGA-729.PLT
 62
7
 10
8.48874219
 20
6.32062500
  0
VERTEX
  8
EGA-729.PLT
 62
7
 10
8.44875000
 20
6.32400000
  0
VERTEX
  8
EGA-729.PLT
 62
7
 10
8.40866406
 20
6.32212500
  0
VERTEX
  8
EGA-729.PLT
 62
7
 10
8.36900000
 20
6.31500000
  0
VERTEX
  8
EGA-729.PLT
 62
7
 10
8.33027344
 20
6.30262500
  0
VERTEX
  8
EGA-729.PLT
 62
7
 10
8.29300000
 20
6.28500000
  0
VERTEX
  8
EGA-729.PLT
 62
7
 10
8.29062500
 20
6.30650000
  0
VERTEX
  8
EGA-729.PLT
 62
7
 10
8.29200000
 20
6.32800000
  0
VERTEX
  8
EGA-729.PLT
 62
7
 10
8.30731055
 20
6.36791211
  0
VERTEX
  8
EGA-729.PLT
 62
7
 10
8.32542188
 20
6.40654688
  0
VERTEX
  8
EGA-729.PLT
 62
7
 10
8.34622852
 20
6.44375195
  0
VERTEX
  8
EGA-729.PLT
 62
7
 10
8.36962500
 20
6.47937500
  0
VERTEX
  8
EGA-729.PLT
 62
7
 10
8.39550586
 20
6.51326367
  0
VERTEX
  8
EGA-729.PLT
 62
7
 10
8.42376562
 20
6.54526562
  0
VERTEX
  8
EGA-729.PLT
 62
7
 10
8.45429883
 20
6.57522852
  0
VERTEX
  8
EGA-729.PLT
 62
7
 10
8.48700000
 20
6.60300000
  0
VERTEX
  8
EGA-729.PLT
 62
7
 10
8.55433398
 20
6.64714062
  0
VERTEX
  8
EGA-729.PLT
 62
7
 10
8.62479687
 20
6.68500000
  0
VERTEX
  8
EGA-729.PLT
 62
7
 10
8.69795508
 20
6.71648438
  0
VERTEX
  8
EGA-729.PLT
 62
7
 10
8.77337500
 20
6.74150000
  0
VERTEX
  8
EGA-729.PLT
 62
7
 10
8.85062305
 20
6.75995313
  0
VERTEX
  8
EGA-729.PLT
 62
7
 10
8.92926562
 20
6.77175000
  0
VERTEX
  8
EGA-729.PLT
 62
7
 10
9.00886914
 20
6.77679687
  0
VERTEX
  8
EGA-729.PLT
 62
7
 10
9.08900000
 20
6.77500000
  0
VERTEX
  8
EGA-729.PLT
 62
7
 10
9.06362500
 20
6.79521875
  0
VERTEX
  8
EGA-729.PLT
 62
7
 10
9.04350000
 20
6.82050000
  0
VERTEX
  8
EGA-729.PLT
 62
7
 10
9.02937500
 20
6.84953125
  0
VERTEX
  8
EGA-729.PLT
 62
7
 10
9.02200000
 20
6.88100000
  0
VERTEX
  8
EGA-729.PLT
 62
7
 10
9.09778052
 20
6.87173730
  0
VERTEX
  8
EGA-729.PLT
 62
7
 10
9.17116602
 20
6.85578906
  0
VERTEX
  8
EGA-729.PLT
 62
7
 10
9.24184741
 20
6.83347754
  0
VERTEX
  8
EGA-729.PLT
 62
7
 10
9.30951562
 20
6.80512500
  0
VERTEX
  8
EGA-729.PLT
 62
7
 10
9.37386157
 20
6.77105371
  0
VERTEX
  8
EGA-729.PLT
 62
7
 10
9.43457617
 20
6.73158594
  0
VERTEX
  8
EGA-729.PLT
 62
7
 10
9.49135034
 20
6.68704395
  0
VERTEX
  8
EGA-729.PLT
 62
7
 10
9.54387500
 20
6.63775000
  0
VERTEX
  8
EGA-729.PLT
 62
7
 10
9.59184106
 20
6.58402637
  0
VERTEX
  8
EGA-729.PLT
 62
7
 10
9.63493945
 20
6.52619531
  0
VERTEX
  8
EGA-729.PLT
 62
7
 10
9.67286108
 20
6.46457910
  0
VERTEX
  8
EGA-729.PLT
 62
7
 10
9.70529688
 20
6.39950000
  0
VERTEX
  8
EGA-729.PLT
 62
7
 10
9.73193774
 20
6.33128027
  0
VERTEX
  8
EGA-729.PLT
 62
7
 10
9.75247461
 20
6.26024219
  0
VERTEX
  8
EGA-729.PLT
 62
7
 10
9.76659839
 20
6.18670801
  0
VERTEX
  8
EGA-729.PLT
 62
7
 10
9.77400000
 20
6.11100000
  0
VERTEX
  8
EGA-729.PLT
 62
7
 10
9.89281250
 20
6.04650000
  0
VERTEX
  8
EGA-729.PLT
 62
7
 10
10.01500000
 20
5.98800000
  0
VERTEX
  8
EGA-729.PLT
 62
7
 10
10.14018750
 20
5.93550000
  0
VERTEX
  8
EGA-729.PLT
 62
7
 10
10.26800000
 20
5.88900000
  0
VERTEX
  8
EGA-729.PLT
 62
7
 10
10.22362500
 20
5.94962500
  0
VERTEX
  8
EGA-729.PLT
 62
7
 10
10.18600000
 20
6.01400000
  0
VERTEX
  8
EGA-729.PLT
 62
7
 10
10.11749780
 20
6.05227441
  0
VERTEX
  8
EGA-729.PLT
 62
7
 10
10.05423242
 20
6.09627344
  0
VERTEX
  8
EGA-729.PLT
 62
7
 10
9.99637817
 20
6.14551074
  0
VERTEX
  8
EGA-729.PLT
 62
7
 10
9.94410938
 20
6.19950000
  0
VERTEX
  8
EGA-729.PLT
 62
7
 10
9.89760034
 20
6.25775488
  0
VERTEX
  8
EGA-729.PLT
 62
7
 10
9.85702539
 20
6.31978906
  0
VERTEX
  8
EGA-729.PLT
 62
7
 10
9.82255884
 20
6.38511621
  0
VERTEX
  8
EGA-729.PLT
 62
7
 10
9.79437500
 20
6.45325000
  0
VERTEX
  8
EGA-729.PLT
 62
7
 10
9.77264819
 20
6.52370410
  0
VERTEX
  8
EGA-729.PLT
 62
7
 10
9.75755273
 20
6.59599219
  0
VERTEX
  8
EGA-729.PLT
 62
7
 10
9.74926294
 20
6.66962793
  0
VERTEX
  8
EGA-729.PLT
 62
7
 10
9.74795313
 20
6.74412500
  0
VERTEX
  8
EGA-729.PLT
 62
7
 10
9.75379761
 20
6.81899707
  0
VERTEX
  8
EGA-729.PLT
 62
7
 10
9.76697070
 20
6.89375781
  0
VERTEX
  8
EGA-729.PLT
 62
7
 10
9.78764673
 20
6.96792090
  0
VERTEX
  8
EGA-729.PLT
 62
7
 10
9.81600000
 20
7.04100000
  0
VERTEX
  8
EGA-729.PLT
 62
7
 10
9.83934375
 20
7.02417188
  0
VERTEX
  8
EGA-729.PLT
 62
7
 10
9.85950000
 20
7.00387500
  0
VERTEX
  8
EGA-729.PLT
 62
7
 10
9.87590625
 20
6.98039063
  0
VERTEX
  8
EGA-729.PLT
 62
7
 10
9.88800000
 20
6.95400000
  0
VERTEX
  8
EGA-729.PLT
 62
7
 10
9.98825000
 20
7.02900000
  0
VERTEX
  8
EGA-729.PLT
 62
7
 10
10.08400000
 20
7.11000000
  0
VERTEX
  8
EGA-729.PLT
 62
7
 10
10.10523560
 20
7.12068750
  0
VERTEX
  8
EGA-729.PLT
 62
7
 10
10.12502539
 20
7.13315625
  0
VERTEX
  8
EGA-729.PLT
 62
7
 10
10.14330640
 20
7.14726563
  0
VERTEX
  8
EGA-729.PLT
 62
7
 10
10.16001563
 20
7.16287500
  0
VERTEX
  8
EGA-729.PLT
 62
7
 10
10.17509009
 20
7.17984375
  0
VERTEX
  8
EGA-729.PLT
 62
7
 10
10.18846680
 20
7.19803125
  0
VERTEX
  8
EGA-729.PLT
 62
7
 10
10.20008276
 20
7.21729687
  0
VERTEX
  8
EGA-729.PLT
 62
7
 10
10.20987500
 20
7.23750000
  0
VERTEX
  8
EGA-729.PLT
 62
7
 10
10.21778052
 20
7.25850000
  0
VERTEX
  8
EGA-729.PLT
 62
7
 10
10.22373633
 20
7.28015625
  0
VERTEX
  8
EGA-729.PLT
 62
7
 10
10.22767944
 20
7.30232812
  0
VERTEX
  8
EGA-729.PLT
 62
7
 10
10.22954688
 20
7.32487500
  0
VERTEX
  8
EGA-729.PLT
 62
7
 10
10.22927563
 20
7.34765625
  0
VERTEX
  8
EGA-729.PLT
 62
7
 10
10.22680273
 20
7.37053125
  0
VERTEX
  8
EGA-729.PLT
 62
7
 10
10.22206519
 20
7.39335938
  0
VERTEX
  8
EGA-729.PLT
 62
7
 10
10.21500000
 20
7.41600000
  0
VERTEX
  8
EGA-729.PLT
 62
7
 10
10.26043140
 20
7.39310864
  0
VERTEX
  8
EGA-729.PLT
 62
7
 10
10.30404492
 20
7.36763477
  0
VERTEX
  8
EGA-729.PLT
 62
7
 10
10.34575708
 20
7.33969116
  0
VERTEX
  8
EGA-729.PLT
 62
7
 10
10.38548438
 20
7.30939062
  0
VERTEX
  8
EGA-729.PLT
 62
7
 10
10.42314331
 20
7.27684595
  0
VERTEX
  8
EGA-729.PLT
 62
7
 10
10.45865039
 20
7.24216992
  0
VERTEX
  8
EGA-729.PLT
 62
7
 10
10.49192212
 20
7.20547534
  0
VERTEX
  8
EGA-729.PLT
 62
7
 10
10.52287500
 20
7.16687500
  0
VERTEX
  8
EGA-729.PLT
 62
7
 10
10.55142554
 20
7.12648169
  0
VERTEX
  8
EGA-729.PLT
 62
7
 10
10.57749023
 20
7.08440820
  0
VERTEX
  8
EGA-729.PLT
 62
7
 10
10.60098560
 20
7.04076733
  0
VERTEX
  8
EGA-729.PLT
 62
7
 10
10.62182813
 20
6.99567188
  0
VERTEX
  8
EGA-729.PLT
 62
7
 10
10.63993433
 20
6.94923462
  0
VERTEX
  8
EGA-729.PLT
 62
7
 10
10.65522070
 20
6.90156836
  0
VERTEX
  8
EGA-729.PLT
 62
7
 10
10.66760376
 20
6.85278589
  0
VERTEX
  8
EGA-729.PLT
 62
7
 10
10.67700000
 20
6.80300000
  0
VERTEX
  8
EGA-729.PLT
 62
7
 10
10.69301562
 20
6.82823438
  0
VERTEX
  8
EGA-729.PLT
 62
7
 10
10.71362500
 20
6.84962500
  0
VERTEX
  8
EGA-729.PLT
 62
7
 10
10.73817188
 20
6.86670312
  0
VERTEX
  8
EGA-729.PLT
 62
7
 10
10.76600000
 20
6.87900000
  0
VERTEX
  8
EGA-729.PLT
 62
7
 10
10.77473779
 20
6.81565381
  0
VERTEX
  8
EGA-729.PLT
 62
7
 10
10.77852734
 20
6.75252734
  0
VERTEX
  8
EGA-729.PLT
 62
7
 10
10.77748291
 20
6.68986377
  0
VERTEX
  8
EGA-729.PLT
 62
7
 10
10.77171875
 20
6.62790625
  0
VERTEX
  8
EGA-729.PLT
 62
7
 10
10.76134912
 20
6.56689795
  0
VERTEX
  8
EGA-729.PLT
 62
7
 10
10.74648828
 20
6.50708203
  0
VERTEX
  8
EGA-729.PLT
 62
7
 10
10.72725049
 20
6.44870166
  0
VERTEX
  8
EGA-729.PLT
 62
7
 10
10.70375000
 20
6.39200000
  0
VERTEX
  8
EGA-729.PLT
 62
7
 10
10.67610107
 20
6.33722021
  0
VERTEX
  8
EGA-729.PLT
 62
7
 10
10.64441797
 20
6.28460547
  0
VERTEX
  8
EGA-729.PLT
 62
7
 10
10.60881494
 20
6.23439893
  0
VERTEX
  8
EGA-729.PLT
 62
7
 10
10.56940625
 20
6.18684375
  0
VERTEX
  8
EGA-729.PLT
 62
7
 10
10.52630615
 20
6.14218311
  0
VERTEX
  8
EGA-729.PLT
 62
7
 10
10.47962891
 20
6.10066016
  0
VERTEX
  8
EGA-729.PLT
 62
7
 10
10.42948877
 20
6.06251807
  0
VERTEX
  8
EGA-729.PLT
 62
7
 10
10.37600000
 20
6.02800000
  0
VERTEX
  8
EGA-729.PLT
 62
7
 10
10.39645923
 20
5.99292310
  0
VERTEX
  8
EGA-729.PLT
 62
7
 10
10.41878320
 20
5.95935352
  0
VERTEX
  8
EGA-729.PLT
 62
7
 10
10.44289136
 20
5.92734546
  0
VERTEX
  8
EGA-729.PLT
 62
7
 10
10.46870312
 20
5.89695312
  0
VERTEX
  8
EGA-729.PLT
 62
7
 10
10.49613794
 20
5.86823071
  0
VERTEX
  8
EGA-729.PLT
 62
7
 10
10.52511523
 20
5.84123242
  0
VERTEX
  8
EGA-729.PLT
 62
7
 10
10.55555444
 20
5.81601245
  0
VERTEX
  8
EGA-729.PLT
 62
7
 10
10.58737500
 20
5.79262500
  0
VERTEX
  8
EGA-729.PLT
 62
7
 10
10.62049634
 20
5.77112427
  0
VERTEX
  8
EGA-729.PLT
 62
7
 10
10.65483789
 20
5.75156445
  0
VERTEX
  8
EGA-729.PLT
 62
7
 10
10.69031909
 20
5.73399976
  0
VERTEX
  8
EGA-729.PLT
 62
7
 10
10.72685938
 20
5.71848438
  0
VERTEX
  8
EGA-729.PLT
 62
7
 10
10.76437817
 20
5.70507251
  0
VERTEX
  8
EGA-729.PLT
 62
7
 10
10.80279492
 20
5.69381836
  0
VERTEX
  8
EGA-729.PLT
 62
7
 10
10.84202905
 20
5.68477612
  0
VERTEX
  8
EGA-729.PLT
 62
7
 10
10.88200000
 20
5.67800000
  0
SEQEND
  0
POLYLINE
  8
EGA-729.PLT
 62
7
 66
1
 70
1
  0
VERTEX
  8
EGA-729.PLT
 62
7
 10
13.07100000
 20
5.67100000
  0
VERTEX
  8
EGA-729.PLT
 62
7
 10
13.11800000
 20
5.67800000
  0
VERTEX
  8
EGA-729.PLT
 62
7
 10
13.15797095
 20
5.68477612
  0
VERTEX
  8
EGA-729.PLT
 62
7
 10
13.19720508
 20
5.69381836
  0
VERTEX
  8
EGA-729.PLT
 62
7
 10
13.23562183
 20
5.70507251
  0
VERTEX
  8
EGA-729.PLT
 62
7
 10
13.27314063
 20
5.71848438
  0
VERTEX
  8
EGA-729.PLT
 62
7
 10
13.30968091
 20
5.73399976
  0
VERTEX
  8
EGA-729.PLT
 62
7
 10
13.34516211
 20
5.75156445
  0
VERTEX
  8
EGA-729.PLT
 62
7
 10
13.37950366
 20
5.77112427
  0
VERTEX
  8
EGA-729.PLT
 62
7
 10
13.41262500
 20
5.79262500
  0
VERTEX
  8
EGA-729.PLT
 62
7
 10
13.44444556
 20
5.81601245
  0
VERTEX
  8
EGA-729.PLT
 62
7
 10
13.47488477
 20
5.84123242
  0
VERTEX
  8
EGA-729.PLT
 62
7
 10
13.50386206
 20
5.86823071
  0
VERTEX
  8
EGA-729.PLT
 62
7
 10
13.53129688
 20
5.89695312
  0
VERTEX
  8
EGA-729.PLT
 62
7
 10
13.55710864
 20
5.92734546
  0
VERTEX
  8
EGA-729.PLT
 62
7
 10
13.58121680
 20
5.95935352
  0
VERTEX
  8
EGA-729.PLT
 62
7
 10
13.60354077
 20
5.99292310
  0
VERTEX
  8
EGA-729.PLT
 62
7
 10
13.62400000
 20
6.02800000
  0
VERTEX
  8
EGA-729.PLT
 62
7
 10
13.57051123
 20
6.06251807
  0
VERTEX
  8
EGA-729.PLT
 62
7
 10
13.52037109
 20
6.10066016
  0
VERTEX
  8
EGA-729.PLT
 62
7
 10
13.47369385
 20
6.14218311
  0
VERTEX
  8
EGA-729.PLT
 62
7
 10
13.43059375
 20
6.18684375
  0
VERTEX
  8
EGA-729.PLT
 62
7
 10
13.39118506
 20
6.23439893
  0
VERTEX
  8
EGA-729.PLT
 62
7
 10
13.35558203
 20
6.28460547
  0
VERTEX
  8
EGA-729.PLT
 62
7
 10
13.32389893
 20
6.33722021
  0
VERTEX
  8
EGA-729.PLT
 62
7
 10
13.29625000
 20
6.39200000
  0
VERTEX
  8
EGA-729.PLT
 62
7
 10
13.27274951
 20
6.44870166
  0
VERTEX
  8
EGA-729.PLT
 62
7
 10
13.25351172
 20
6.50708203
  0
VERTEX
  8
EGA-729.PLT
 62
7
 10
13.23865088
 20
6.56689795
  0
VERTEX
  8
EGA-729.PLT
 62
7
 10
13.22828125
 20
6.62790625
  0
VERTEX
  8
EGA-729.PLT
 62
7
 10
13.22251709
 20
6.68986377
  0
VERTEX
  8
EGA-729.PLT
 62
7
 10
13.22147266
 20
6.75252734
  0
VERTEX
  8
EGA-729.PLT
 62
7
 10
13.22526221
 20
6.81565381
  0
VERTEX
  8
EGA-729.PLT
 62
7
 10
13.23400000
 20
6.87900000
  0
VERTEX
  8
EGA-729.PLT
 62
7
 10
13.26182812
 20
6.86670312
  0
VERTEX
  8
EGA-729.PLT
 62
7
 10
13.28637500
 20
6.84962500
  0
VERTEX
  8
EGA-729.PLT
 62
7
 10
13.30698438
 20
6.82823438
  0
VERTEX
  8
EGA-729.PLT
 62
7
 10
13.32300000
 20
6.80300000
  0
VERTEX
  8
EGA-729.PLT
 62
7
 10
13.33239624
 20
6.85278589
  0
VERTEX
  8
EGA-729.PLT
 62
7
 10
13.34477930
 20
6.90156836
  0
VERTEX
  8
EGA-729.PLT
 62
7
 10
13.36006567
 20
6.94923462
  0
VERTEX
  8
EGA-729.PLT
 62
7
 10
13.37817188
 20
6.99567188
  0
VERTEX
  8
EGA-729.PLT
 62
7
 10
13.39901440
 20
7.04076733
  0
VERTEX
  8
EGA-729.PLT
 62
7
 10
13.42250977
 20
7.08440820
  0
VERTEX
  8
EGA-729.PLT
 62
7
 10
13.44857446
 20
7.12648169
  0
VERTEX
  8
EGA-729.PLT
 62
7
 10
13.47712500
 20
7.16687500
  0
VERTEX
  8
EGA-729.PLT
 62
7
 10
13.50807788
 20
7.20547534
  0
VERTEX
  8
EGA-729.PLT
 62
7
 10
13.54134961
 20
7.24216992
  0
VERTEX
  8
EGA-729.PLT
 62
7
 10
13.57685669
 20
7.27684595
  0
VERTEX
  8
EGA-729.PLT
 62
7
 10
13.61451562
 20
7.30939062
  0
VERTEX
  8
EGA-729.PLT
 62
7
 10
13.65424292
 20
7.33969116
  0
VERTEX
  8
EGA-729.PLT
 62
7
 10
13.69595508
 20
7.36763477
  0
VERTEX
  8
EGA-729.PLT
 62
7
 10
13.73956860
 20
7.39310864
  0
VERTEX
  8
EGA-729.PLT
 62
7
 10
13.78500000
 20
7.41600000
  0
VERTEX
  8
EGA-729.PLT
 62
7
 10
13.77793481
 20
7.39335938
  0
VERTEX
  8
EGA-729.PLT
 62
7
 10
13.77319727
 20
7.37053125
  0
VERTEX
  8
EGA-729.PLT
 62
7
 10
13.77072437
 20
7.34765625
  0
VERTEX
  8
EGA-729.PLT
 62
7
 10
13.77045313
 20
7.32487500
  0
VERTEX
  8
EGA-729.PLT
 62
7
 10
13.77232056
 20
7.30232812
  0
VERTEX
  8
EGA-729.PLT
 62
7
 10
13.77626367
 20
7.28015625
  0
VERTEX
  8
EGA-729.PLT
 62
7
 10
13.78221948
 20
7.25850000
  0
VERTEX
  8
EGA-729.PLT
 62
7
 10
13.79012500
 20
7.23750000
  0
VERTEX
  8
EGA-729.PLT
 62
7
 10
13.79991724
 20
7.21729687
  0
VERTEX
  8
EGA-729.PLT
 62
7
 10
13.81153320
 20
7.19803125
  0
VERTEX
  8
EGA-729.PLT
 62
7
 10
13.82490991
 20
7.17984375
  0
VERTEX
  8
EGA-729.PLT
 62
7
 10
13.83998438
 20
7.16287500
  0
VERTEX
  8
EGA-729.PLT
 62
7
 10
13.85669360
 20
7.14726563
  0
VERTEX
  8
EGA-729.PLT
 62
7
 10
13.87497461
 20
7.13315625
  0
VERTEX
  8
EGA-729.PLT
 62
7
 10
13.89476440
 20
7.12068750
  0
VERTEX
  8
EGA-729.PLT
 62
7
 10
13.91600000
 20
7.11000000
  0
VERTEX
  8
EGA-729.PLT
 62
7
 10
14.01175000
 20
7.02900000
  0
VERTEX
  8
EGA-729.PLT
 62
7
 10
14.11200000
 20
6.95400000
  0
VERTEX
  8
EGA-729.PLT
 62
7
 10
14.12409375
 20
6.98039063
  0
VERTEX
  8
EGA-729.PLT
 62
7
 10
14.14050000
 20
7.00387500
  0
VERTEX
  8
EGA-729.PLT
 62
7
 10
14.16065625
 20
7.02417188
  0
VERTEX
  8
EGA-729.PLT
 62
7
 10
14.18400000
 20
7.04100000
  0
VERTEX
  8
EGA-729.PLT
 62
7
 10
14.21235327
 20
6.96792090
  0
VERTEX
  8
EGA-729.PLT
 62
7
 10
14.23302930
 20
6.89375781
  0
VERTEX
  8
EGA-729.PLT
 62
7
 10
14.24620239
 20
6.81899707
  0
VERTEX
  8
EGA-729.PLT
 62
7
 10
14.25204688
 20
6.74412500
  0
VERTEX
  8
EGA-729.PLT
 62
7
 10
14.25073706
 20
6.66962793
  0
VERTEX
  8
EGA-729.PLT
 62
7
 10
14.24244727
 20
6.59599219
  0
VERTEX
  8
EGA-729.PLT
 62
7
 10
14.22735181
 20
6.52370410
  0
VERTEX
  8
EGA-729.PLT
 62
7
 10
14.20562500
 20
6.45325000
  0
VERTEX
  8
EGA-729.PLT
 62
7
 10
14.17744116
 20
6.38511621
  0
VERTEX
  8
EGA-729.PLT
 62
7
 10
14.14297461
 20
6.31978906
  0
VERTEX
  8
EGA-729.PLT
 62
7
 10
14.10239966
 20
6.25775488
  0
VERTEX
  8
EGA-729.PLT
 62
7
 10
14.05589063
 20
6.19950000
  0
VERTEX
  8
EGA-729.PLT
 62
7
 10
14.00362183
 20
6.14551074
  0
VERTEX
  8
EGA-729.PLT
 62
7
 10
13.94576758
 20
6.09627344
  0
VERTEX
  8
EGA-729.PLT
 62
7
 10
13.88250220
 20
6.05227441
  0
VERTEX
  8
EGA-729.PLT
 62
7
 10
13.81400000
 20
6.01400000
  0
VERTEX
  8
EGA-729.PLT
 62
7
 10
13.77637500
 20
5.94962500
  0
VERTEX
  8
EGA-729.PLT
 62
7
 10
13.73200000
 20
5.88900000
  0
VERTEX
  8
EGA-729.PLT
 62
7
 10
13.85981250
 20
5.93550000
  0
VERTEX
  8
EGA-729.PLT
 62
7
 10
13.98500000
 20
5.98800000
  0
VERTEX
  8
EGA-729.PLT
 62
7
 10
14.10718750
 20
6.04650000
  0
VERTEX
  8
EGA-729.PLT
 62
7
 10
14.22600000
 20
6.11100000
  0
VERTEX
  8
EGA-729.PLT
 62
7
 10
14.23340161
 20
6.18670801
  0
VERTEX
  8
EGA-729.PLT
 62
7
 10
14.24752539
 20
6.26024219
  0
VERTEX
  8
EGA-729.PLT
 62
7
 10
14.26806226
 20
6.33128027
  0
VERTEX
  8
EGA-729.PLT
 62
7
 10
14.29470313
 20
6.39950000
  0
VERTEX
  8
EGA-729.PLT
 62
7
 10
14.32713892
 20
6.46457910
  0
VERTEX
  8
EGA-729.PLT
 62
7
 10
14.36506055
 20
6.52619531
  0
VERTEX
  8
EGA-729.PLT
 62
7
 10
14.40815894
 20
6.58402637
  0
VERTEX
  8
EGA-729.PLT
 62
7
 10
14.45612500
 20
6.63775000
  0
VERTEX
  8
EGA-729.PLT
 62
7
 10
14.50864966
 20
6.68704395
  0
VERTEX
  8
EGA-729.PLT
 62
7
 10
14.56542383
 20
6.73158594
  0
VERTEX
  8
EGA-729.PLT
 62
7
 10
14.62613843
 20
6.77105371
  0
VERTEX
  8
EGA-729.PLT
 62
7
 10
14.69048438
 20
6.80512500
  0
VERTEX
  8
EGA-729.PLT
 62
7
 10
14.75815259
 20
6.83347754
  0
VERTEX
  8
EGA-729.PLT
 62
7
 10
14.82883398
 20
6.85578906
  0
VERTEX
  8
EGA-729.PLT
 62
7
 10
14.90221948
 20
6.87173730
  0
VERTEX
  8
EGA-729.PLT
 62
7
 10
14.97800000
 20
6.88100000
  0
VERTEX
  8
EGA-729.PLT
 62
7
 10
14.97062500
 20
6.84953125
  0
VERTEX
  8
EGA-729.PLT
 62
7
 10
14.95650000
 20
6.82050000
  0
VERTEX
  8
EGA-729.PLT
 62
7
 10
14.93637500
 20
6.79521875
  0
VERTEX
  8
EGA-729.PLT
 62
7
 10
14.91100000
 20
6.77500000
  0
VERTEX
  8
EGA-729.PLT
 62
7
 10
14.99113086
 20
6.77679687
  0
VERTEX
  8
EGA-729.PLT
 62
7
 10
15.07073438
 20
6.77175000
  0
VERTEX
  8
EGA-729.PLT
 62
7
 10
15.14937695
 20
6.75995313
  0
VERTEX
  8
EGA-729.PLT
 62
7
 10
15.22662500
 20
6.74150000
  0
VERTEX
  8
EGA-729.PLT
 62
7
 10
15.30204492
 20
6.71648438
  0
VERTEX
  8
EGA-729.PLT
 62
7
 10
15.37520313
 20
6.68500000
  0
VERTEX
  8
EGA-729.PLT
 62
7
 10
15.44566602
 20
6.64714062
  0
VERTEX
  8
EGA-729.PLT
 62
7
 10
15.51300000
 20
6.60300000
  0
VERTEX
  8
EGA-729.PLT
 62
7
 10
15.54570117
 20
6.57522852
  0
VERTEX
  8
EGA-729.PLT
 62
7
 10
15.57623438
 20
6.54526562
  0
VERTEX
  8
EGA-729.PLT
 62
7
 10
15.60449414
 20
6.51326367
  0
VERTEX
  8
EGA-729.PLT
 62
7
 10
15.63037500
 20
6.47937500
  0
VERTEX
  8
EGA-729.PLT
 62
7
 10
15.65377148
 20
6.44375195
  0
VERTEX
  8
EGA-729.PLT
 62
7
 10
15.67457813
 20
6.40654688
  0
VERTEX
  8
EGA-729.PLT
 62
7
 10
15.69268945
 20
6.36791211
  0
VERTEX
  8
EGA-729.PLT
 62
7
 10
15.70800000
 20
6.32800000
  0
VERTEX
  8
EGA-729.PLT
 62
7
 10
15.70937500
 20
6.30650000
  0
VERTEX
  8
EGA-729.PLT
 62
7
 10
15.70700000
 20
6.28500000
  0
VERTEX
  8
EGA-729.PLT
 62
7
 10
15.66972656
 20
6.30262500
  0
VERTEX
  8
EGA-729.PLT
 62
7
 10
15.63100000
 20
6.31500000
  0
VERTEX
  8
EGA-729.PLT
 62
7
 10
15.59133594
 20
6.32212500
  0
VERTEX
  8
EGA-729.PLT
 62
7
 10
15.55125000
 20
6.32400000
  0
VERTEX
  8
EGA-729.PLT
 62
7
 10
15.51125781
 20
6.32062500
  0
VERTEX
  8
EGA-729.PLT
 62
7
 10
15.47187500
 20
6.31200000
  0
VERTEX
  8
EGA-729.PLT
 62
7
 10
15.43361719
 20
6.29812500
  0
VERTEX
  8
EGA-729.PLT
 62
7
 10
15.39700000
 20
6.27900000
  0
VERTEX
  8
EGA-729.PLT
 62
7
 10
15.35798242
 20
6.25030664
  0
VERTEX
  8
EGA-729.PLT
 62
7
 10
15.32204688
 20
6.21839062
  0
VERTEX
  8
EGA-729.PLT
 62
7
 10
15.28936914
 20
6.18349805
  0
VERTEX
  8
EGA-729.PLT
 62
7
 10
15.26012500
 20
6.14587500
  0
VERTEX
  8
EGA-729.PLT
 62
7
 10
15.23449023
 20
6.10576758
  0
VERTEX
  8
EGA-729.PLT
 62
7
 10
15.21264063
 20
6.06342188
  0
VERTEX
  8
EGA-729.PLT
 62
7
 10
15.19475195
 20
6.01908398
  0
VERTEX
  8
EGA-729.PLT
 62
7
 10
15.18100000
 20
5.97300000
  0
VERTEX
  8
EGA-729.PLT
 62
7
 10
15.21762500
 20
5.98290625
  0
VERTEX
  8
EGA-729.PLT
 62
7
 10
15.25500000
 20
5.98700000
  0
VERTEX
  8
EGA-729.PLT
 62
7
 10
15.29237500
 20
5.98509375
  0
VERTEX
  8
EGA-729.PLT
 62
7
 10
15.32900000
 20
5.97700000
  0
VERTEX
  8
EGA-729.PLT
 62
7
 10
15.30479224
 20
5.94913940
  0
VERTEX
  8
EGA-729.PLT
 62
7
 10
15.27910352
 20
5.92295898
  0
VERTEX
  8
EGA-729.PLT
 62
7
 10
15.25202319
 20
5.89849829
  0
VERTEX
  8
EGA-729.PLT
 62
7
 10
15.22364063
 20
5.87579687
  0
VERTEX
  8
EGA-729.PLT
 62
7
 10
15.19404517
 20
5.85489429
  0
VERTEX
  8
EGA-729.PLT
 62
7
 10
15.16332617
 20
5.83583008
  0
VERTEX
  8
EGA-729.PLT
 62
7
 10
15.13157300
 20
5.81864380
  0
VERTEX
  8
EGA-729.PLT
 62
7
 10
15.09887500
 20
5.80337500
  0
VERTEX
  8
EGA-729.PLT
 62
7
 10
15.06532153
 20
5.79006323
  0
VERTEX
  8
EGA-729.PLT
 62
7
 10
15.03100195
 20
5.77874805
  0
VERTEX
  8
EGA-729.PLT
 62
7
 10
14.99600562
 20
5.76946899
  0
VERTEX
  8
EGA-729.PLT
 62
7
 10
14.96042188
 20
5.76226563
  0
VERTEX
  8
EGA-729.PLT
 62
7
 10
14.92434009
 20
5.75717749
  0
VERTEX
  8
EGA-729.PLT
 62
7
 10
14.88784961
 20
5.75424414
  0
VERTEX
  8
EGA-729.PLT
 62
7
 10
14.85103979
 20
5.75350513
  0
VERTEX
  8
EGA-729.PLT
 62
7
 10
14.81400000
 20
5.75500000
  0
VERTEX
  8
EGA-729.PLT
 62
7
 10
14.74874414
 20
5.76023242
  0
VERTEX
  8
EGA-729.PLT
 62
7
 10
14.68439063
 20
5.77060938
  0
VERTEX
  8
EGA-729.PLT
 62
7
 10
14.62118555
 20
5.78602539
  0
VERTEX
  8
EGA-729.PLT
 62
7
 10
14.55937500
 20
5.80637500
  0
VERTEX
  8
EGA-729.PLT
 62
7
 10
14.49920508
 20
5.83155273
  0
VERTEX
  8
EGA-729.PLT
 62
7
 10
14.44092188
 20
5.86145312
  0
VERTEX
  8
EGA-729.PLT
 62
7
 10
14.38477148
 20
5.89597070
  0
VERTEX
  8
EGA-729.PLT
 62
7
 10
14.33100000
 20
5.93500000
  0
VERTEX
  8
EGA-729.PLT
 62
7
 10
14.20771875
 20
5.88743750
  0
VERTEX
  8
EGA-729.PLT
 62
7
 10
14.08575000
 20
5.83800000
  0
VERTEX
  8
EGA-729.PLT
 62
7
 10
13.96565625
 20
5.78706250
  0
VERTEX
  8
EGA-729.PLT
 62
7
 10
13.84800000
 20
5.73500000
  0
VERTEX
  8
EGA-729.PLT
 62
7
 10
13.92312500
 20
5.70500000
  0
VERTEX
  8
EGA-729.PLT
 62
7
 10
13.99600000
 20
5.66900000
  0
VERTEX
  8
EGA-729.PLT
 62
7
 10
14.06355078
 20
5.69744531
  0
VERTEX
  8
EGA-729.PLT
 62
7
 10
14.13309375
 20
5.71900000
  0
VERTEX
  8
EGA-729.PLT
 62
7
 10
14.20408984
 20
5.73361719
  0
VERTEX
  8
EGA-729.PLT
 62
7
 10
14.27600000
 20
5.74125000
  0
VERTEX
  8
EGA-729.PLT
 62
7
 10
14.34828516
 20
5.74185156
  0
VERTEX
  8
EGA-729.PLT
 62
7
 10
14.42040625
 20
5.73537500
  0
VERTEX
  8
EGA-729.PLT
 62
7
 10
14.49182422
 20
5.72177344
  0
VERTEX
  8
EGA-729.PLT
 62
7
 10
14.56200000
 20
5.70100000
  0
VERTEX
  8
EGA-729.PLT
 62
7
 10
14.62254883
 20
5.67359180
  0
VERTEX
  8
EGA-729.PLT
 62
7
 10
14.67945313
 20
5.64035938
  0
VERTEX
  8
EGA-729.PLT
 62
7
 10
14.73234961
 20
5.60166602
  0
VERTEX
  8
EGA-729.PLT
 62
7
 10
14.78087500
 20
5.55787500
  0
VERTEX
  8
EGA-729.PLT
 62
7
 10
14.82466602
 20
5.50934961
  0
VERTEX
  8
EGA-729.PLT
 62
7
 10
14.86335938
 20
5.45645313
  0
VERTEX
  8
EGA-729.PLT
 62
7
 10
14.89659180
 20
5.39954883
  0
VERTEX
  8
EGA-729.PLT
 62
7
 10
14.92400000
 20
5.33900000
  0
VERTEX
  8
EGA-729.PLT
 62
7
 10
14.89443750
 20
5.33660938
  0
VERTEX
  8
EGA-729.PLT
 62
7
 10
14.86450000
 20
5.33712500
  0
VERTEX
  8
EGA-729.PLT
 62
7
 10
14.83456250
 20
5.34082812
  0
VERTEX
  8
EGA-729.PLT
 62
7
 10
14.80500000
 20
5.34800000
  0
VERTEX
  8
EGA-729.PLT
 62
7
 10
14.83190820
 20
5.28079688
  0
VERTEX
  8
EGA-729.PLT
 62
7
 10
14.85114062
 20
5.21162500
  0
VERTEX
  8
EGA-729.PLT
 62
7
 10
14.86270898
 20
5.14114063
  0
VERTEX
  8
EGA-729.PLT
 62
7
 10
14.86662500
 20
5.07000000
  0
VERTEX
  8
EGA-729.PLT
 62
7
 10
14.86290039
 20
4.99885938
  0
VERTEX
  8
EGA-729.PLT
 62
7
 10
14.85154688
 20
4.92837500
  0
VERTEX
  8
EGA-729.PLT
 62
7
 10
14.83257617
 20
4.85920312
  0
VERTEX
  8
EGA-729.PLT
 62
7
 10
14.80600000
 20
4.79200000
  0
VERTEX
  8
EGA-729.PLT
 62
7
 10
14.78459961
 20
4.75162109
  0
VERTEX
  8
EGA-729.PLT
 62
7
 10
14.76023438
 20
4.71309375
  0
VERTEX
  8
EGA-729.PLT
 62
7
 10
14.73303320
 20
4.67658203
  0
VERTEX
  8
EGA-729.PLT
 62
7
 10
14.70312500
 20
4.64225000
  0
VERTEX
  8
EGA-729.PLT
 62
7
 10
14.67063867
 20
4.61026172
  0
VERTEX
  8
EGA-729.PLT
 62
7
 10
14.63570312
 20
4.58078125
  0
VERTEX
  8
EGA-729.PLT
 62
7
 10
14.59844727
 20
4.55397266
  0
VERTEX
  8
EGA-729.PLT
 62
7
 10
14.55900000
 20
4.53000000
  0
VERTEX
  8
EGA-729.PLT
 62
7
 10
14.56125781
 20
4.55327539
  0
VERTEX
  8
EGA-729.PLT
 62
7
 10
14.56131250
 20
4.57651562
  0
VERTEX
  8
EGA-729.PLT
 62
7
 10
14.55921094
 20
4.59959180
  0
VERTEX
  8
EGA-729.PLT
 62
7
 10
14.55500000
 20
4.62237500
  0
VERTEX
  8
EGA-729.PLT
 62
7
 10
14.54872656
 20
4.64473633
  0
VERTEX
  8
EGA-729.PLT
 62
7
 10
14.54043750
 20
4.66654687
  0
VERTEX
  8
EGA-729.PLT
 62
7
 10
14.53017969
 20
4.68767773
  0
VERTEX
  8
EGA-729.PLT
 62
7
 10
14.51800000
 20
4.70800000
  0
VERTEX
  8
EGA-729.PLT
 62
7
 10
14.49129688
 20
4.73979687
  0
VERTEX
  8
EGA-729.PLT
 62
7
 10
14.45962500
 20
4.76587500
  0
VERTEX
  8
EGA-729.PLT
 62
7
 10
14.42364063
 20
4.78576562
  0
VERTEX
  8
EGA-729.PLT
 62
7
 10
14.38400000
 20
4.79900000
  0
VERTEX
  8
EGA-729.PLT
 62
7
 10
14.33156250
 20
4.81642187
  0
VERTEX
  8
EGA-729.PLT
 62
7
 10
14.27800000
 20
4.82812500
  0
VERTEX
  8
EGA-729.PLT
 62
7
 10
14.22368750
 20
4.83401563
  0
VERTEX
  8
EGA-729.PLT
 62
7
 10
14.16900000
 20
4.83400000
  0
VERTEX
  8
EGA-729.PLT
 62
7
 10
14.19240625
 20
4.80712500
  0
VERTEX
  8
EGA-729.PLT
 62
7
 10
14.21000000
 20
4.77650000
  0
VERTEX
  8
EGA-729.PLT
 62
7
 10
14.22159375
 20
4.74287500
  0
VERTEX
  8
EGA-729.PLT
 62
7
 10
14.22700000
 20
4.70700000
  0
VERTEX
  8
EGA-729.PLT
 62
7
 10
14.18960474
 20
4.72056006
  0
VERTEX
  8
EGA-729.PLT
 62
7
 10
14.15321289
 20
4.73607422
  0
VERTEX
  8
EGA-729.PLT
 62
7
 10
14.11789038
 20
4.75348096
  0
VERTEX
  8
EGA-729.PLT
 62
7
 10
14.08370313
 20
4.77271875
  0
VERTEX
  8
EGA-729.PLT
 62
7
 10
14.05071704
 20
4.79372607
  0
VERTEX
  8
EGA-729.PLT
 62
7
 10
14.01899805
 20
4.81644141
  0
VERTEX
  8
EGA-729.PLT
 62
7
 10
13.98861206
 20
4.84080322
  0
VERTEX
  8
EGA-729.PLT
 62
7
 10
13.95962500
 20
4.86675000
  0
VERTEX
  8
EGA-729.PLT
 62
7
 10
13.93210278
 20
4.89422021
  0
VERTEX
  8
EGA-729.PLT
 62
7
 10
13.90611133
 20
4.92315234
  0
VERTEX
  8
EGA-729.PLT
 62
7
 10
13.88171655
 20
4.95348486
  0
VERTEX
  8
EGA-729.PLT
 62
7
 10
13.85898438
 20
4.98515625
  0
VERTEX
  8
EGA-729.PLT
 62
7
 10
13.83798071
 20
5.01810498
  0
VERTEX
  8
EGA-729.PLT
 62
7
 10
13.81877148
 20
5.05226953
  0
VERTEX
  8
EGA-729.PLT
 62
7
 10
13.80142261
 20
5.08758838
  0
VERTEX
  8
EGA-729.PLT
 62
7
 10
13.78600000
 20
5.12400000
  0
VERTEX
  8
EGA-729.PLT
 62
7
 10
13.76907813
 20
5.17559766
  0
VERTEX
  8
EGA-729.PLT
 62
7
 10
13.75731250
 20
5.22815625
  0
VERTEX
  8
EGA-729.PLT
 62
7
 10
13.75070312
 20
5.28132422
  0
VERTEX
  8
EGA-729.PLT
 62
7
 10
13.74925000
 20
5.33475000
  0
VERTEX
  8
EGA-729.PLT
 62
7
 10
13.75295312
 20
5.38808203
  0
VERTEX
  8
EGA-729.PLT
 62
7
 10
13.76181250
 20
5.44096875
  0
VERTEX
  8
EGA-729.PLT
 62
7
 10
13.77582813
 20
5.49305859
  0
VERTEX
  8
EGA-729.PLT
 62
7
 10
13.79500000
 20
5.54400000
  0
VERTEX
  8
EGA-729.PLT
 62
7
 10
13.76731445
 20
5.56344336
  0
VERTEX
  8
EGA-729.PLT
 62
7
 10
13.73776563
 20
5.57898438
  0
VERTEX
  8
EGA-729.PLT
 62
7
 10
13.70674023
 20
5.59056445
  0
VERTEX
  8
EGA-729.PLT
 62
7
 10
13.67462500
 20
5.59812500
  0
VERTEX
  8
EGA-729.PLT
 62
7
 10
13.64180664
 20
5.60160742
  0
VERTEX
  8
EGA-729.PLT
 62
7
 10
13.60867188
 20
5.60095313
  0
VERTEX
  8
EGA-729.PLT
 62
7
 10
13.57560742
 20
5.59610352
  0
VERTEX
  8
EGA-729.PLT
 62
7
 10
13.54300000
 20
5.58700000
  0
VERTEX
  8
EGA-729.PLT
 62
7
 10
13.35925000
 20
5.54537500
  0
VERTEX
  8
EGA-729.PLT
 62
7
 10
13.17700000
 20
5.49700000
  0
VERTEX
  8
EGA-729.PLT
 62
7
 10
13.14600000
 20
5.48500000
  0
VERTEX
  8
EGA-729.PLT
 62
7
 10
13.14380273
 20
5.51066992
  0
VERTEX
  8
EGA-729.PLT
 62
7
 10
13.13948438
 20
5.53585938
  0
VERTEX
  8
EGA-729.PLT
 62
7
 10
13.13308008
 20
5.56046289
  0
VERTEX
  8
EGA-729.PLT
 62
7
 10
13.12462500
 20
5.58437500
  0
VERTEX
  8
EGA-729.PLT
 62
7
 10
13.11415430
 20
5.60749023
  0
VERTEX
  8
EGA-729.PLT
 62
7
 10
13.10170313
 20
5.62970312
  0
VERTEX
  8
EGA-729.PLT
 62
7
 10
13.08730664
 20
5.65090820
  0
SEQEND
  0
POLYLINE
  8
EGA-729.PLT
 62
7
 66
1
 70
1
  0
VERTEX
  8
EGA-729.PLT
 62
7
 10
12.00000000
 20
7.17000000
  0
VERTEX
  8
EGA-729.PLT
 62
7
 10
12.02599609
 20
7.17082031
  0
VERTEX
  8
EGA-729.PLT
 62
7
 10
12.05196875
 20
7.17468750
  0
VERTEX
  8
EGA-729.PLT
 62
7
 10
12.07751953
 20
7.18146094
  0
VERTEX
  8
EGA-729.PLT
 62
7
 10
12.10225000
 20
7.19100000
  0
VERTEX
  8
EGA-729.PLT
 62
7
 10
12.12576172
 20
7.20316406
  0
VERTEX
  8
EGA-729.PLT
 62
7
 10
12.14765625
 20
7.21781250
  0
VERTEX
  8
EGA-729.PLT
 62
7
 10
12.16753516
 20
7.23480469
  0
VERTEX
  8
EGA-729.PLT
 62
7
 10
12.18500000
 20
7.25400000
  0
VERTEX
  8
EGA-729.PLT
 62
7
 10
12.23500000
 20
7.22300000
  0
VERTEX
  8
EGA-729.PLT
 62
7
 10
12.43900000
 20
7.11300000
  0
VERTEX
  8
EGA-729.PLT
 62
7
 10
12.45981836
 20
7.09819141
  0
VERTEX
  8
EGA-729.PLT
 62
7
 10
12.47860938
 20
7.08096875
  0
VERTEX
  8
EGA-729.PLT
 62
7
 10
12.49512695
 20
7.06163672
  0
VERTEX
  8
EGA-729.PLT
 62
7
 10
12.50912500
 20
7.04050000
  0
VERTEX
  8
EGA-729.PLT
 62
7
 10
12.52035742
 20
7.01786328
  0
VERTEX
  8
EGA-729.PLT
 62
7
 10
12.52857812
 20
6.99403125
  0
VERTEX
  8
EGA-729.PLT
 62
7
 10
12.53354102
 20
6.96930859
  0
VERTEX
  8
EGA-729.PLT
 62
7
 10
12.53500000
 20
6.94400000
  0
VERTEX
  8
EGA-729.PLT
 62
7
 10
12.52620313
 20
6.88970312
  0
VERTEX
  8
EGA-729.PLT
 62
7
 10
12.51187500
 20
6.83662500
  0
VERTEX
  8
EGA-729.PLT
 62
7
 10
12.49210938
 20
6.78523437
  0
VERTEX
  8
EGA-729.PLT
 62
7
 10
12.46700000
 20
6.73600000
  0
VERTEX
  8
EGA-729.PLT
 62
7
 10
12.22200000
 20
6.39700000
  0
VERTEX
  8
EGA-729.PLT
 62
7
 10
12.17968750
 20
6.41798437
  0
VERTEX
  8
EGA-729.PLT
 62
7
 10
12.13550000
 20
6.43437500
  0
VERTEX
  8
EGA-729.PLT
 62
7
 10
12.08981250
 20
6.44607812
  0
VERTEX
  8
EGA-729.PLT
 62
7
 10
12.04300000
 20
6.45300000
  0
VERTEX
  8
EGA-729.PLT
 62
7
 10
12.02500000
 20
6.93600000
  0
VERTEX
  8
EGA-729.PLT
 62
7
 10
11.97500000
 20
6.93600000
  0
VERTEX
  8
EGA-729.PLT
 62
7
 10
11.95700000
 20
6.45300000
  0
VERTEX
  8
EGA-729.PLT
 62
7
 10
11.91018750
 20
6.44607812
  0
VERTEX
  8
EGA-729.PLT
 62
7
 10
11.86450000
 20
6.43437500
  0
VERTEX
  8
EGA-729.PLT
 62
7
 10
11.82031250
 20
6.41798437
  0
VERTEX
  8
EGA-729.PLT
 62
7
 10
11.77800000
 20
6.39700000
  0
VERTEX
  8
EGA-729.PLT
 62
7
 10
11.53300000
 20
6.73600000
  0
VERTEX
  8
EGA-729.PLT
 62
7
 10
11.50789063
 20
6.78523437
  0
VERTEX
  8
EGA-729.PLT
 62
7
 10
11.48812500
 20
6.83662500
  0
VERTEX
  8
EGA-729.PLT
 62
7
 10
11.47379688
 20
6.88970312
  0
VERTEX
  8
EGA-729.PLT
 62
7
 10
11.46500000
 20
6.94400000
  0
VERTEX
  8
EGA-729.PLT
 62
7
 10
11.46645898
 20
6.96930859
  0
VERTEX
  8
EGA-729.PLT
 62
7
 10
11.47142188
 20
6.99403125
  0
VERTEX
  8
EGA-729.PLT
 62
7
 10
11.47964258
 20
7.01786328
  0
VERTEX
  8
EGA-729.PLT
 62
7
 10
11.49087500
 20
7.04050000
  0
VERTEX
  8
EGA-729.PLT
 62
7
 10
11.50487305
 20
7.06163672
  0
VERTEX
  8
EGA-729.PLT
 62
7
 10
11.52139063
 20
7.08096875
  0
VERTEX
  8
EGA-729.PLT
 62
7
 10
11.54018164
 20
7.09819141
  0
VERTEX
  8
EGA-729.PLT
 62
7
 10
11.56100000
 20
7.11300000
  0
VERTEX
  8
EGA-729.PLT
 62
7
 10
11.76500000
 20
7.22300000
  0
VERTEX
  8
EGA-729.PLT
 62
7
 10
11.81500000
 20
7.25400000
  0
VERTEX
  8
EGA-729.PLT
 62
7
 10
11.83246484
 20
7.23480469
  0
VERTEX
  8
EGA-729.PLT
 62
7
 10
11.85234375
 20
7.21781250
  0
VERTEX
  8
EGA-729.PLT
 62
7
 10
11.87423828
 20
7.20316406
  0
VERTEX
  8
EGA-729.PLT
 62
7
 10
11.89775000
 20
7.19100000
  0
VERTEX
  8
EGA-729.PLT
 62
7
 10
11.92248047
 20
7.18146094
  0
VERTEX
  8
EGA-729.PLT
 62
7
 10
11.94803125
 20
7.17468750
  0
VERTEX
  8
EGA-729.PLT
 62
7
 10
11.97400391
 20
7.17082031
  0
SEQEND
  0
POLYLINE
  8
EGA-729.PLT
 62
7
 66
1
 70
1
  0
VERTEX
  8
EGA-729.PLT
 62
7
 10
11.88000000
 20
4.92800000
  0
VERTEX
  8
EGA-729.PLT
 62
7
 10
11.86415820
 20
4.90852344
  0
VERTEX
  8
EGA-729.PLT
 62
7
 10
11.84607813
 20
4.89143750
  0
VERTEX
  8
EGA-729.PLT
 62
7
 10
11.82605273
 20
4.87688281
  0
VERTEX
  8
EGA-729.PLT
 62
7
 10
11.80437500
 20
4.86500000
  0
VERTEX
  8
EGA-729.PLT
 62
7
 10
11.78133789
 20
4.85592969
  0
VERTEX
  8
EGA-729.PLT
 62
7
 10
11.75723437
 20
4.84981250
  0
VERTEX
  8
EGA-729.PLT
 62
7
 10
11.73235742
 20
4.84678906
  0
VERTEX
  8
EGA-729.PLT
 62
7
 10
11.70700000
 20
4.84700000
  0
VERTEX
  8
EGA-729.PLT
 62
7
 10
11.64765625
 20
4.85493750
  0
VERTEX
  8
EGA-729.PLT
 62
7
 10
11.59000000
 20
4.86400000
  0
VERTEX
  8
EGA-729.PLT
 62
7
 10
11.53234375
 20
4.87231250
  0
VERTEX
  8
EGA-729.PLT
 62
7
 10
11.47300000
 20
4.87800000
  0
VERTEX
  8
EGA-729.PLT
 62
7
 10
11.44350000
 20
4.88112500
  0
VERTEX
  8
EGA-729.PLT
 62
7
 10
11.41400000
 20
4.88200000
  0
VERTEX
  8
EGA-729.PLT
 62
7
 10
11.41134961
 20
4.90760156
  0
VERTEX
  8
EGA-729.PLT
 62
7
 10
11.40573438
 20
4.93250000
  0
VERTEX
  8
EGA-729.PLT
 62
7
 10
11.39728320
 20
4.95646094
  0
VERTEX
  8
EGA-729.PLT
 62
7
 10
11.38612500
 20
4.97925000
  0
VERTEX
  8
EGA-729.PLT
 62
7
 10
11.37238867
 20
5.00063281
  0
VERTEX
  8
EGA-729.PLT
 62
7
 10
11.35620313
 20
5.02037500
  0
VERTEX
  8
EGA-729.PLT
 62
7
 10
11.33769727
 20
5.03824219
  0
VERTEX
  8
EGA-729.PLT
 62
7
 10
11.31700000
 20
5.05400000
  0
VERTEX
  8
EGA-729.PLT
 62
7
 10
11.29491992
 20
5.06721484
  0
VERTEX
  8
EGA-729.PLT
 62
7
 10
11.27160938
 20
5.07759375
  0
VERTEX
  8
EGA-729.PLT
 62
7
 10
11.24733789
 20
5.08511328
  0
VERTEX
  8
EGA-729.PLT
 62
7
 10
11.22237500
 20
5.08975000
  0
VERTEX
  8
EGA-729.PLT
 62
7
 10
11.19699023
 20
5.09148047
  0
VERTEX
  8
EGA-729.PLT
 62
7
 10
11.17145312
 20
5.09028125
  0
VERTEX
  8
EGA-729.PLT
 62
7
 10
11.14603320
 20
5.08612891
  0
VERTEX
  8
EGA-729.PLT
 62
7
 10
11.12100000
 20
5.07900000
  0
VERTEX
  8
EGA-729.PLT
 62
7
 10
11.10900000
 20
5.11637500
  0
VERTEX
  8
EGA-729.PLT
 62
7
 10
11.09400000
 20
5.15300000
  0
VERTEX
  8
EGA-729.PLT
 62
7
 10
10.99100000
 20
5.36800000
  0
VERTEX
  8
EGA-729.PLT
 62
7
 10
10.98288477
 20
5.39199414
  0
VERTEX
  8
EGA-729.PLT
 62
7
 10
10.97801562
 20
5.41651562
  0
VERTEX
  8
EGA-729.PLT
 62
7
 10
10.97635742
 20
5.44124805
  0
VERTEX
  8
EGA-729.PLT
 62
7
 10
10.97787500
 20
5.46587500
  0
VERTEX
  8
EGA-729.PLT
 62
7
 10
10.98253320
 20
5.49008008
  0
VERTEX
  8
EGA-729.PLT
 62
7
 10
10.99029688
 20
5.51354688
  0
VERTEX
  8
EGA-729.PLT
 62
7
 10
11.00113086
 20
5.53595898
  0
VERTEX
  8
EGA-729.PLT
 62
7
 10
11.01500000
 20
5.55700000
  0
VERTEX
  8
EGA-729.PLT
 62
7
 10
11.05376563
 20
5.59692187
  0
VERTEX
  8
EGA-729.PLT
 62
7
 10
11.09637500
 20
5.63262500
  0
VERTEX
  8
EGA-729.PLT
 62
7
 10
11.14254688
 20
5.66401563
  0
VERTEX
  8
EGA-729.PLT
 62
7
 10
11.19200000
 20
5.69100000
  0
VERTEX
  8
EGA-729.PLT
 62
7
 10
11.58800000
 20
5.81800000
  0
VERTEX
  8
EGA-729.PLT
 62
7
 10
11.60956250
 20
5.77582813
  0
VERTEX
  8
EGA-729.PLT
 62
7
 10
11.63525000
 20
5.73637500
  0
VERTEX
  8
EGA-729.PLT
 62
7
 10
11.66506250
 20
5.69973438
  0
VERTEX
  8
EGA-729.PLT
 62
7
 10
11.69900000
 20
5.66600000
  0
VERTEX
  8
EGA-729.PLT
 62
7
 10
11.43100000
 20
5.26400000
  0
VERTEX
  8
EGA-729.PLT
 62
7
 10
11.47200000
 20
5.23400000
  0
VERTEX
  8
EGA-729.PLT
 62
7
 10
11.77000000
 20
5.61400000
  0
VERTEX
  8
EGA-729.PLT
 62
7
 10
11.81173438
 20
5.59225000
  0
VERTEX
  8
EGA-729.PLT
 62
7
 10
11.85562500
 20
5.57500000
  0
VERTEX
  8
EGA-729.PLT
 62
7
 10
11.90120313
 20
5.56225000
  0
VERTEX
  8
EGA-729.PLT
 62
7
 10
11.94800000
 20
5.55400000
  0
VERTEX
  8
EGA-729.PLT
 62
7
 10
11.94700000
 20
5.13700000
  0
VERTEX
  8
EGA-729.PLT
 62
7
 10
11.93835937
 20
5.08226562
  0
VERTEX
  8
EGA-729.PLT
 62
7
 10
11.92437500
 20
5.02912500
  0
VERTEX
  8
EGA-729.PLT
 62
7
 10
11.90495313
 20
4.97767188
  0
SEQEND
  0
POLYLINE
  8
EGA-729.PLT
 62
7
 66
1
 70
1
  0
VERTEX
  8
EGA-729.PLT
 62
7
 10
12.12000000
 20
4.92800000
  0
VERTEX
  8
EGA-729.PLT
 62
7
 10
12.09504688
 20
4.97767188
  0
VERTEX
  8
EGA-729.PLT
 62
7
 10
12.07562500
 20
5.02912500
  0
VERTEX
  8
EGA-729.PLT
 62
7
 10
12.06164063
 20
5.08226562
  0
VERTEX
  8
EGA-729.PLT
 62
7
 10
12.05300000
 20
5.13700000
  0
VERTEX
  8
EGA-729.PLT
 62
7
 10
12.05200000
 20
5.55400000
  0
VERTEX
  8
EGA-729.PLT
 62
7
 10
12.09879688
 20
5.56225000
  0
VERTEX
  8
EGA-729.PLT
 62
7
 10
12.14437500
 20
5.57500000
  0
VERTEX
  8
EGA-729.PLT
 62
7
 10
12.18826563
 20
5.59225000
  0
VERTEX
  8
EGA-729.PLT
 62
7
 10
12.23000000
 20
5.61400000
  0
VERTEX
  8
EGA-729.PLT
 62
7
 10
12.52800000
 20
5.23400000
  0
VERTEX
  8
EGA-729.PLT
 62
7
 10
12.56900000
 20
5.26400000
  0
VERTEX
  8
EGA-729.PLT
 62
7
 10
12.30100000
 20
5.66600000
  0
VERTEX
  8
EGA-729.PLT
 62
7
 10
12.33493750
 20
5.69973438
  0
VERTEX
  8
EGA-729.PLT
 62
7
 10
12.36475000
 20
5.73637500
  0
VERTEX
  8
EGA-729.PLT
 62
7
 10
12.39043750
 20
5.77582813
  0
VERTEX
  8
EGA-729.PLT
 62
7
 10
12.41200000
 20
5.81800000
  0
VERTEX
  8
EGA-729.PLT
 62
7
 10
12.80800000
 20
5.69100000
  0
VERTEX
  8
EGA-729.PLT
 62
7
 10
12.85745312
 20
5.66401563
  0
VERTEX
  8
EGA-729.PLT
 62
7
 10
12.90362500
 20
5.63262500
  0
VERTEX
  8
EGA-729.PLT
 62
7
 10
12.94623438
 20
5.59692187
  0
VERTEX
  8
EGA-729.PLT
 62
7
 10
12.98500000
 20
5.55700000
  0
VERTEX
  8
EGA-729.PLT
 62
7
 10
12.99886914
 20
5.53595898
  0
VERTEX
  8
EGA-729.PLT
 62
7
 10
13.00970313
 20
5.51354688
  0
VERTEX
  8
EGA-729.PLT
 62
7
 10
13.01746680
 20
5.49008008
  0
VERTEX
  8
EGA-729.PLT
 62
7
 10
13.02212500
 20
5.46587500
  0
VERTEX
  8
EGA-729.PLT
 62
7
 10
13.02364258
 20
5.44124805
  0
VERTEX
  8
EGA-729.PLT
 62
7
 10
13.02198438
 20
5.41651562
  0
VERTEX
  8
EGA-729.PLT
 62
7
 10
13.01711523
 20
5.39199414
  0
VERTEX
  8
EGA-729.PLT
 62
7
 10
13.00900000
 20
5.36800000
  0
VERTEX
  8
EGA-729.PLT
 62
7
 10
12.90600000
 20
5.15300000
  0
VERTEX
  8
EGA-729.PLT
 62
7
 10
12.89100000
 20
5.11637500
  0
VERTEX
  8
EGA-729.PLT
 62
7
 10
12.87900000
 20
5.07900000
  0
VERTEX
  8
EGA-729.PLT
 62
7
 10
12.85396680
 20
5.08612891
  0
VERTEX
  8
EGA-729.PLT
 62
7
 10
12.82854688
 20
5.09028125
  0
VERTEX
  8
EGA-729.PLT
 62
7
 10
12.80300977
 20
5.09148047
  0
VERTEX
  8
EGA-729.PLT
 62
7
 10
12.77762500
 20
5.08975000
  0
VERTEX
  8
EGA-729.PLT
 62
7
 10
12.75266211
 20
5.08511328
  0
VERTEX
  8
EGA-729.PLT
 62
7
 10
12.72839062
 20
5.07759375
  0
VERTEX
  8
EGA-729.PLT
 62
7
 10
12.70508008
 20
5.06721484
  0
VERTEX
  8
EGA-729.PLT
 62
7
 10
12.68300000
 20
5.05400000
  0
VERTEX
  8
EGA-729.PLT
 62
7
 10
12.66230273
 20
5.03824219
  0
VERTEX
  8
EGA-729.PLT
 62
7
 10
12.64379688
 20
5.02037500
  0
VERTEX
  8
EGA-729.PLT
 62
7
 10
12.62761133
 20
5.00063281
  0
VERTEX
  8
EGA-729.PLT
 62
7
 10
12.61387500
 20
4.97925000
  0
VERTEX
  8
EGA-729.PLT
 62
7
 10
12.60271680
 20
4.95646094
  0
VERTEX
  8
EGA-729.PLT
 62
7
 10
12.59426563
 20
4.93250000
  0
VERTEX
  8
EGA-729.PLT
 62
7
 10
12.58865039
 20
4.90760156
  0
VERTEX
  8
EGA-729.PLT
 62
7
 10
12.58600000
 20
4.88200000
  0
VERTEX
  8
EGA-729.PLT
 62
7
 10
12.55650000
 20
4.88112500
  0
VERTEX
  8
EGA-729.PLT
 62
7
 10
12.52700000
 20
4.87800000
  0
VERTEX
  8
EGA-729.PLT
 62
7
 10
12.46765625
 20
4.87231250
  0
VERTEX
  8
EGA-729.PLT
 62
7
 10
12.41000000
 20
4.86400000
  0
VERTEX
  8
EGA-729.PLT
 62
7
 10
12.35234375
 20
4.85493750
  0
VERTEX
  8
EGA-729.PLT
 62
7
 10
12.29300000
 20
4.84700000
  0
VERTEX
  8
EGA-729.PLT
 62
7
 10
12.26764258
 20
4.84678906
  0
VERTEX
  8
EGA-729.PLT
 62
7
 10
12.24276563
 20
4.84981250
  0
VERTEX
  8
EGA-729.PLT
 62
7
 10
12.21866211
 20
4.85592969
  0
VERTEX
  8
EGA-729.PLT
 62
7
 10
12.19562500
 20
4.86500000
  0
VERTEX
  8
EGA-729.PLT
 62
7
 10
12.17394727
 20
4.87688281
  0
VERTEX
  8
EGA-729.PLT
 62
7
 10
12.15392188
 20
4.89143750
  0
VERTEX
  8
EGA-729.PLT
 62
7
 10
12.13584180
 20
4.90852344
  0
SEQEND
  0
POLYLINE
  8
EGA-729.PLT
 62
7
 66
1
 70
1
  0
VERTEX
  8
EGA-729.PLT
 62
7
 10
11.45200000
 20
6.67600000
  0
VERTEX
  8
EGA-729.PLT
 62
7
 10
11.69600000
 20
6.33800000
  0
VERTEX
  8
EGA-729.PLT
 62
7
 10
11.66307813
 20
6.30468750
  0
VERTEX
  8
EGA-729.PLT
 62
7
 10
11.63362500
 20
6.26800000
  0
VERTEX
  8
EGA-729.PLT
 62
7
 10
11.60810938
 20
6.22831250
  0
VERTEX
  8
EGA-729.PLT
 62
7
 10
11.58700000
 20
6.18600000
  0
VERTEX
  8
EGA-729.PLT
 62
7
 10
11.12100000
 20
6.31600000
  0
VERTEX
  8
EGA-729.PLT
 62
7
 10
11.10500000
 20
6.26700000
  0
VERTEX
  8
EGA-729.PLT
 62
7
 10
11.55900000
 20
6.10200000
  0
VERTEX
  8
EGA-729.PLT
 62
7
 10
11.55095312
 20
6.05518750
  0
VERTEX
  8
EGA-729.PLT
 62
7
 10
11.54787500
 20
6.00800000
  0
VERTEX
  8
EGA-729.PLT
 62
7
 10
11.54985938
 20
5.96081250
  0
VERTEX
  8
EGA-729.PLT
 62
7
 10
11.55700000
 20
5.91400000
  0
VERTEX
  8
EGA-729.PLT
 62
7
 10
11.15900000
 20
5.78600000
  0
VERTEX
  8
EGA-729.PLT
 62
7
 10
11.10453125
 20
5.77698437
  0
VERTEX
  8
EGA-729.PLT
 62
7
 10
11.04950000
 20
5.77387500
  0
VERTEX
  8
EGA-729.PLT
 62
7
 10
10.99446875
 20
5.77657813
  0
VERTEX
  8
EGA-729.PLT
 62
7
 10
10.94000000
 20
5.78500000
  0
VERTEX
  8
EGA-729.PLT
 62
7
 10
10.91669531
 20
5.79400781
  0
VERTEX
  8
EGA-729.PLT
 62
7
 10
10.89493750
 20
5.80587500
  0
VERTEX
  8
EGA-729.PLT
 62
7
 10
10.87496094
 20
5.82036719
  0
VERTEX
  8
EGA-729.PLT
 62
7
 10
10.85700000
 20
5.83725000
  0
VERTEX
  8
EGA-729.PLT
 62
7
 10
10.84128906
 20
5.85628906
  0
VERTEX
  8
EGA-729.PLT
 62
7
 10
10.82806250
 20
5.87725000
  0
VERTEX
  8
EGA-729.PLT
 62
7
 10
10.81755469
 20
5.89989844
  0
VERTEX
  8
EGA-729.PLT
 62
7
 10
10.81000000
 20
5.92400000
  0
VERTEX
  8
EGA-729.PLT
 62
7
 10
10.79012500
 20
6.04125000
  0
VERTEX
  8
EGA-729.PLT
 62
7
 10
10.76800000
 20
6.15700000
  0
VERTEX
  8
EGA-729.PLT
 62
7
 10
10.75300000
 20
6.21400000
  0
VERTEX
  8
EGA-729.PLT
 62
7
 10
10.77659766
 20
6.22437305
  0
VERTEX
  8
EGA-729.PLT
 62
7
 10
10.79853125
 20
6.23735937
  0
VERTEX
  8
EGA-729.PLT
 62
7
 10
10.81863672
 20
6.25275977
  0
VERTEX
  8
EGA-729.PLT
 62
7
 10
10.83675000
 20
6.27037500
  0
VERTEX
  8
EGA-729.PLT
 62
7
 10
10.85270703
 20
6.29000586
  0
VERTEX
  8
EGA-729.PLT
 62
7
 10
10.86634375
 20
6.31145312
  0
VERTEX
  8
EGA-729.PLT
 62
7
 10
10.87749609
 20
6.33451758
  0
VERTEX
  8
EGA-729.PLT
 62
7
 10
10.88600000
 20
6.35900000
  0
VERTEX
  8
EGA-729.PLT
 62
7
 10
10.89162891
 20
6.38431641
  0
VERTEX
  8
EGA-729.PLT
 62
7
 10
10.89428125
 20
6.40984375
  0
VERTEX
  8
EGA-729.PLT
 62
7
 10
10.89398047
 20
6.43532422
  0
VERTEX
  8
EGA-729.PLT
 62
7
 10
10.89075000
 20
6.46050000
  0
VERTEX
  8
EGA-729.PLT
 62
7
 10
10.88461328
 20
6.48511328
  0
VERTEX
  8
EGA-729.PLT
 62
7
 10
10.87559375
 20
6.50890625
  0
VERTEX
  8
EGA-729.PLT
 62
7
 10
10.86371484
 20
6.53162109
  0
VERTEX
  8
EGA-729.PLT
 62
7
 10
10.84900000
 20
6.55300000
  0
VERTEX
  8
EGA-729.PLT
 62
7
 10
10.88125000
 20
6.57650000
  0
VERTEX
  8
EGA-729.PLT
 62
7
 10
10.91200000
 20
6.60300000
  0
VERTEX
  8
EGA-729.PLT
 62
7
 10
10.99725000
 20
6.68200000
  0
VERTEX
  8
EGA-729.PLT
 62
7
 10
11.08400000
 20
6.76700000
  0
VERTEX
  8
EGA-729.PLT
 62
7
 10
11.10433984
 20
6.78204102
  0
VERTEX
  8
EGA-729.PLT
 62
7
 10
11.12615625
 20
6.79414062
  0
VERTEX
  8
EGA-729.PLT
 62
7
 10
11.14914453
 20
6.80326367
  0
VERTEX
  8
EGA-729.PLT
 62
7
 10
11.17300000
 20
6.80937500
  0
VERTEX
  8
EGA-729.PLT
 62
7
 10
11.19741797
 20
6.81243945
  0
VERTEX
  8
EGA-729.PLT
 62
7
 10
11.22209375
 20
6.81242188
  0
VERTEX
  8
EGA-729.PLT
 62
7
 10
11.24672266
 20
6.80928711
  0
VERTEX
  8
EGA-729.PLT
 62
7
 10
11.27100000
 20
6.80300000
  0
VERTEX
  8
EGA-729.PLT
 62
7
 10
11.32107813
 20
6.77809375
  0
VERTEX
  8
EGA-729.PLT
 62
7
 10
11.36787500
 20
6.74850000
  0
VERTEX
  8
EGA-729.PLT
 62
7
 10
11.41148438
 20
6.71440625
  0
SEQEND
  0
POLYLINE
  8
EGA-729.PLT
 62
7
 66
1
 70
1
  0
VERTEX
  8
EGA-729.PLT
 62
7
 10
12.54800000
 20
6.67600000
  0
VERTEX
  8
EGA-729.PLT
 62
7
 10
12.58851562
 20
6.71440625
  0
VERTEX
  8
EGA-729.PLT
 62
7
 10
12.63212500
 20
6.74850000
  0
VERTEX
  8
EGA-729.PLT
 62
7
 10
12.67892188
 20
6.77809375
  0
VERTEX
  8
EGA-729.PLT
 62
7
 10
12.72900000
 20
6.80300000
  0
VERTEX
  8
EGA-729.PLT
 62
7
 10
12.75327734
 20
6.80928711
  0
VERTEX
  8
EGA-729.PLT
 62
7
 10
12.77790625
 20
6.81242188
  0
VERTEX
  8
EGA-729.PLT
 62
7
 10
12.80258203
 20
6.81243945
  0
VERTEX
  8
EGA-729.PLT
 62
7
 10
12.82700000
 20
6.80937500
  0
VERTEX
  8
EGA-729.PLT
 62
7
 10
12.85085547
 20
6.80326367
  0
VERTEX
  8
EGA-729.PLT
 62
7
 10
12.87384375
 20
6.79414062
  0
VERTEX
  8
EGA-729.PLT
 62
7
 10
12.89566016
 20
6.78204102
  0
VERTEX
  8
EGA-729.PLT
 62
7
 10
12.91600000
 20
6.76700000
  0
VERTEX
  8
EGA-729.PLT
 62
7
 10
13.00275000
 20
6.68200000
  0
VERTEX
  8
EGA-729.PLT
 62
7
 10
13.08800000
 20
6.60300000
  0
VERTEX
  8
EGA-729.PLT
 62
7
 10
13.11875000
 20
6.57650000
  0
VERTEX
  8
EGA-729.PLT
 62
7
 10
13.15100000
 20
6.55300000
  0
VERTEX
  8
EGA-729.PLT
 62
7
 10
13.13628516
 20
6.53162109
  0
VERTEX
  8
EGA-729.PLT
 62
7
 10
13.12440625
 20
6.50890625
  0
VERTEX
  8
EGA-729.PLT
 62
7
 10
13.11538672
 20
6.48511328
  0
VERTEX
  8
EGA-729.PLT
 62
7
 10
13.10925000
 20
6.46050000
  0
VERTEX
  8
EGA-729.PLT
 62
7
 10
13.10601953
 20
6.43532422
  0
VERTEX
  8
EGA-729.PLT
 62
7
 10
13.10571875
 20
6.40984375
  0
VERTEX
  8
EGA-729.PLT
 62
7
 10
13.10837109
 20
6.38431641
  0
VERTEX
  8
EGA-729.PLT
 62
7
 10
13.11400000
 20
6.35900000
  0
VERTEX
  8
EGA-729.PLT
 62
7
 10
13.12250391
 20
6.33451758
  0
VERTEX
  8
EGA-729.PLT
 62
7
 10
13.13365625
 20
6.31145312
  0
VERTEX
  8
EGA-729.PLT
 62
7
 10
13.14729297
 20
6.29000586
  0
VERTEX
  8
EGA-729.PLT
 62
7
 10
13.16325000
 20
6.27037500
  0
VERTEX
  8
EGA-729.PLT
 62
7
 10
13.18136328
 20
6.25275977
  0
VERTEX
  8
EGA-729.PLT
 62
7
 10
13.20146875
 20
6.23735937
  0
VERTEX
  8
EGA-729.PLT
 62
7
 10
13.22340234
 20
6.22437305
  0
VERTEX
  8
EGA-729.PLT
 62
7
 10
13.24700000
 20
6.21400000
  0
VERTEX
  8
EGA-729.PLT
 62
7
 10
13.23200000
 20
6.15700000
  0
VERTEX
  8
EGA-729.PLT
 62
7
 10
13.20987500
 20
6.04125000
  0
VERTEX
  8
EGA-729.PLT
 62
7
 10
13.19000000
 20
5.92400000
  0
VERTEX
  8
EGA-729.PLT
 62
7
 10
13.18244531
 20
5.89989844
  0
VERTEX
  8
EGA-729.PLT
 62
7
 10
13.17193750
 20
5.87725000
  0
VERTEX
  8
EGA-729.PLT
 62
7
 10
13.15871094
 20
5.85628906
  0
VERTEX
  8
EGA-729.PLT
 62
7
 10
13.14300000
 20
5.83725000
  0
VERTEX
  8
EGA-729.PLT
 62
7
 10
13.12503906
 20
5.82036719
  0
VERTEX
  8
EGA-729.PLT
 62
7
 10
13.10506250
 20
5.80587500
  0
VERTEX
  8
EGA-729.PLT
 62
7
 10
13.08330469
 20
5.79400781
  0
VERTEX
  8
EGA-729.PLT
 62
7
 10
13.06000000
 20
5.78500000
  0
VERTEX
  8
EGA-729.PLT
 62
7
 10
13.00553125
 20
5.77657813
  0
VERTEX
  8
EGA-729.PLT
 62
7
 10
12.95050000
 20
5.77387500
  0
VERTEX
  8
EGA-729.PLT
 62
7
 10
12.89546875
 20
5.77698437
  0
VERTEX
  8
EGA-729.PLT
 62
7
 10
12.84100000
 20
5.78600000
  0
VERTEX
  8
EGA-729.PLT
 62
7
 10
12.44300000
 20
5.91400000
  0
VERTEX
  8
EGA-729.PLT
 62
7
 10
12.45014063
 20
5.96081250
  0
VERTEX
  8
EGA-729.PLT
 62
7
 10
12.45212500
 20
6.00800000
  0
VERTEX
  8
EGA-729.PLT
 62
7
 10
12.44904688
 20
6.05518750
  0
VERTEX
  8
EGA-729.PLT
 62
7
 10
12.44100000
 20
6.10200000
  0
VERTEX
  8
EGA-729.PLT
 62
7
 10
12.89500000
 20
6.26700000
  0
VERTEX
  8
EGA-729.PLT
 62
7
 10
12.87900000
 20
6.31600000
  0
VERTEX
  8
EGA-729.PLT
 62
7
 10
12.41300000
 20
6.18600000
  0
VERTEX
  8
EGA-729.PLT
 62
7
 10
12.39189063
 20
6.22831250
  0
VERTEX
  8
EGA-729.PLT
 62
7
 10
12.36637500
 20
6.26800000
  0
VERTEX
  8
EGA-729.PLT
 62
7
 10
12.33692188
 20
6.30468750
  0
VERTEX
  8
EGA-729.PLT
 62
7
 10
12.30400000
 20
6.33800000
  0
SEQEND
  0
POLYLINE
  8
EGA-729.PLT
 62
7
 66
1
 70
1
  0
VERTEX
  8
EGA-729.PLT
 62
7
 10
9.43900000
 20
6.07600000
  0
VERTEX
  8
EGA-729.PLT
 62
7
 10
9.50400000
 20
6.15200000
  0
VERTEX
  8
EGA-729.PLT
 62
7
 10
9.45716089
 20
6.18897949
  0
VERTEX
  8
EGA-729.PLT
 62
7
 10
9.40894336
 20
6.22377344
  0
VERTEX
  8
EGA-729.PLT
 62
7
 10
9.35942212
 20
6.25635254
  0
VERTEX
  8
EGA-729.PLT
 62
7
 10
9.30867187
 20
6.28668750
  0
VERTEX
  8
EGA-729.PLT
 62
7
 10
9.25676733
 20
6.31474902
  0
VERTEX
  8
EGA-729.PLT
 62
7
 10
9.20378320
 20
6.34050781
  0
VERTEX
  8
EGA-729.PLT
 62
7
 10
9.14979419
 20
6.36393457
  0
VERTEX
  8
EGA-729.PLT
 62
7
 10
9.09487500
 20
6.38500000
  0
VERTEX
  8
EGA-729.PLT
 62
7
 10
9.03910034
 20
6.40367480
  0
VERTEX
  8
EGA-729.PLT
 62
7
 10
8.98254492
 20
6.41992969
  0
VERTEX
  8
EGA-729.PLT
 62
7
 10
8.92528345
 20
6.43373535
  0
VERTEX
  8
EGA-729.PLT
 62
7
 10
8.86739063
 20
6.44506250
  0
VERTEX
  8
EGA-729.PLT
 62
7
 10
8.80894116
 20
6.45388184
  0
VERTEX
  8
EGA-729.PLT
 62
7
 10
8.75000977
 20
6.46016406
  0
VERTEX
  8
EGA-729.PLT
 62
7
 10
8.69067114
 20
6.46387988
  0
VERTEX
  8
EGA-729.PLT
 62
7
 10
8.63100000
 20
6.46500000
  0
VERTEX
  8
EGA-729.PLT
 62
7
 10
8.63000000
 20
6.44000000
  0
VERTEX
  8
EGA-729.PLT
 62
7
 10
8.74080469
 20
6.41874023
  0
VERTEX
  8
EGA-729.PLT
 62
7
 10
8.84950000
 20
6.39029687
  0
VERTEX
  8
EGA-729.PLT
 62
7
 10
8.95575781
 20
6.35479883
  0
VERTEX
  8
EGA-729.PLT
 62
7
 10
9.05925000
 20
6.31237500
  0
VERTEX
  8
EGA-729.PLT
 62
7
 10
9.15964844
 20
6.26315430
  0
VERTEX
  8
EGA-729.PLT
 62
7
 10
9.25662500
 20
6.20726562
  0
VERTEX
  8
EGA-729.PLT
 62
7
 10
9.34985156
 20
6.14483789
  0
SEQEND
  0
POLYLINE
  8
EGA-729.PLT
 62
7
 66
1
 70
1
  0
VERTEX
  8
EGA-729.PLT
 62
7
 10
14.56100000
 20
6.07600000
  0
VERTEX
  8
EGA-729.PLT
 62
7
 10
14.65014844
 20
6.14483789
  0
VERTEX
  8
EGA-729.PLT
 62
7
 10
14.74337500
 20
6.20726562
  0
VERTEX
  8
EGA-729.PLT
 62
7
 10
14.84035156
 20
6.26315430
  0
VERTEX
  8
EGA-729.PLT
 62
7
 10
14.94075000
 20
6.31237500
  0
VERTEX
  8
EGA-729.PLT
 62
7
 10
15.04424219
 20
6.35479883
  0
VERTEX
  8
EGA-729.PLT
 62
7
 10
15.15050000
 20
6.39029687
  0
VERTEX
  8
EGA-729.PLT
 62
7
 10
15.25919531
 20
6.41874023
  0
VERTEX
  8
EGA-729.PLT
 62
7
 10
15.37000000
 20
6.44000000
  0
VERTEX
  8
EGA-729.PLT
 62
7
 10
15.36900000
 20
6.46500000
  0
VERTEX
  8
EGA-729.PLT
 62
7
 10
15.30932886
 20
6.46387988
  0
VERTEX
  8
EGA-729.PLT
 62
7
 10
15.24999023
 20
6.46016406
  0
VERTEX
  8
EGA-729.PLT
 62
7
 10
15.19105884
 20
6.45388184
  0
VERTEX
  8
EGA-729.PLT
 62
7
 10
15.13260937
 20
6.44506250
  0
VERTEX
  8
EGA-729.PLT
 62
7
 10
15.07471655
 20
6.43373535
  0
VERTEX
  8
EGA-729.PLT
 62
7
 10
15.01745508
 20
6.41992969
  0
VERTEX
  8
EGA-729.PLT
 62
7
 10
14.96089966
 20
6.40367480
  0
VERTEX
  8
EGA-729.PLT
 62
7
 10
14.90512500
 20
6.38500000
  0
VERTEX
  8
EGA-729.PLT
 62
7
 10
14.85020581
 20
6.36393457
  0
VERTEX
  8
EGA-729.PLT
 62
7
 10
14.79621680
 20
6.34050781
  0
VERTEX
  8
EGA-729.PLT
 62
7
 10
14.74323267
 20
6.31474902
  0
VERTEX
  8
EGA-729.PLT
 62
7
 10
14.69132813
 20
6.28668750
  0
VERTEX
  8
EGA-729.PLT
 62
7
 10
14.64057788
 20
6.25635254
  0
VERTEX
  8
EGA-729.PLT
 62
7
 10
14.59105664
 20
6.22377344
  0
VERTEX
  8
EGA-729.PLT
 62
7
 10
14.54283911
 20
6.18897949
  0
VERTEX
  8
EGA-729.PLT
 62
7
 10
14.49600000
 20
6.15200000
  0
SEQEND
  0
POLYLINE
  8
EGA-729.PLT
 62
7
 66
1
 70
1
  0
VERTEX
  8
EGA-729.PLT
 62
7
 10
12.00000000
 20
6.35500000
  0
VERTEX
  8
EGA-729.PLT
 62
7
 10
12.03862573
 20
6.35221143
  0
VERTEX
  8
EGA-729.PLT
 62
7
 10
12.07566211
 20
6.34553516
  0
VERTEX
  8
EGA-729.PLT
 62
7
 10
12.11097290
 20
6.33525537
  0
VERTEX
  8
EGA-729.PLT
 62
7
 10
12.14442188
 20
6.32165625
  0
VERTEX
  8
EGA-729.PLT
 62
7
 10
12.17587280
 20
6.30502197
  0
VERTEX
  8
EGA-729.PLT
 62
7
 10
12.20518945
 20
6.28563672
  0
VERTEX
  8
EGA-729.PLT
 62
7
 10
12.23223560
 20
6.26378467
  0
VERTEX
  8
EGA-729.PLT
 62
7
 10
12.25687500
 20
6.23975000
  0
VERTEX
  8
EGA-729.PLT
 62
7
 10
12.27897144
 20
6.21381689
  0
VERTEX
  8
EGA-729.PLT
 62
7
 10
12.29838867
 20
6.18626953
  0
VERTEX
  8
EGA-729.PLT
 62
7
 10
12.31499048
 20
6.15739209
  0
VERTEX
  8
EGA-729.PLT
 62
7
 10
12.32864063
 20
6.12746875
  0
VERTEX
  8
EGA-729.PLT
 62
7
 10
12.33920288
 20
6.09678369
  0
VERTEX
  8
EGA-729.PLT
 62
7
 10
12.34654102
 20
6.06562109
  0
VERTEX
  8
EGA-729.PLT
 62
7
 10
12.35051880
 20
6.03426514
  0
VERTEX
  8
EGA-729.PLT
 62
7
 10
12.35100000
 20
6.00300000
  0
VERTEX
  8
EGA-729.PLT
 62
7
 10
12.34787109
 20
5.96576953
  0
VERTEX
  8
EGA-729.PLT
 62
7
 10
12.34157813
 20
5.92992187
  0
VERTEX
  8
EGA-729.PLT
 62
7
 10
12.33226172
 20
5.89559766
  0
VERTEX
  8
EGA-729.PLT
 62
7
 10
12.32006250
 20
5.86293750
  0
VERTEX
  8
EGA-729.PLT
 62
7
 10
12.30512109
 20
5.83208203
  0
VERTEX
  8
EGA-729.PLT
 62
7
 10
12.28757813
 20
5.80317188
  0
VERTEX
  8
EGA-729.PLT
 62
7
 10
12.26757422
 20
5.77634766
  0
VERTEX
  8
EGA-729.PLT
 62
7
 10
12.24525000
 20
5.75175000
  0
VERTEX
  8
EGA-729.PLT
 62
7
 10
12.22074609
 20
5.72951953
  0
VERTEX
  8
EGA-729.PLT
 62
7
 10
12.19420313
 20
5.70979688
  0
VERTEX
  8
EGA-729.PLT
 62
7
 10
12.16576172
 20
5.69272266
  0
VERTEX
  8
EGA-729.PLT
 62
7
 10
12.13556250
 20
5.67843750
  0
VERTEX
  8
EGA-729.PLT
 62
7
 10
12.10374609
 20
5.66708203
  0
VERTEX
  8
EGA-729.PLT
 62
7
 10
12.07045313
 20
5.65879688
  0
VERTEX
  8
EGA-729.PLT
 62
7
 10
12.03582422
 20
5.65372266
  0
VERTEX
  8
EGA-729.PLT
 62
7
 10
12.00000000
 20
5.65200000
  0
VERTEX
  8
EGA-729.PLT
 62
7
 10
11.96417578
 20
5.65372266
  0
VERTEX
  8
EGA-729.PLT
 62
7
 10
11.92954688
 20
5.65879688
  0
VERTEX
  8
EGA-729.PLT
 62
7
 10
11.89625391
 20
5.66708203
  0
VERTEX
  8
EGA-729.PLT
 62
7
 10
11.86443750
 20
5.67843750
  0
VERTEX
  8
EGA-729.PLT
 62
7
 10
11.83423828
 20
5.69272266
  0
VERTEX
  8
EGA-729.PLT
 62
7
 10
11.80579688
 20
5.70979688
  0
VERTEX
  8
EGA-729.PLT
 62
7
 10
11.77925391
 20
5.72951953
  0
VERTEX
  8
EGA-729.PLT
 62
7
 10
11.75475000
 20
5.75175000
  0
VERTEX
  8
EGA-729.PLT
 62
7
 10
11.73242578
 20
5.77634766
  0
VERTEX
  8
EGA-729.PLT
 62
7
 10
11.71242188
 20
5.80317188
  0
VERTEX
  8
EGA-729.PLT
 62
7
 10
11.69487891
 20
5.83208203
  0
VERTEX
  8
EGA-729.PLT
 62
7
 10
11.67993750
 20
5.86293750
  0
VERTEX
  8
EGA-729.PLT
 62
7
 10
11.66773828
 20
5.89559766
  0
VERTEX
  8
EGA-729.PLT
 62
7
 10
11.65842188
 20
5.92992187
  0
VERTEX
  8
EGA-729.PLT
 62
7
 10
11.65212891
 20
5.96576953
  0
VERTEX
  8
EGA-729.PLT
 62
7
 10
11.64900000
 20
6.00300000
  0
VERTEX
  8
EGA-729.PLT
 62
7
 10
11.64948120
 20
6.03426514
  0
VERTEX
  8
EGA-729.PLT
 62
7
 10
11.65345898
 20
6.06562109
  0
VERTEX
  8
EGA-729.PLT
 62
7
 10
11.66079712
 20
6.09678369
  0
VERTEX
  8
EGA-729.PLT
 62
7
 10
11.67135938
 20
6.12746875
  0
VERTEX
  8
EGA-729.PLT
 62
7
 10
11.68500952
 20
6.15739209
  0
VERTEX
  8
EGA-729.PLT
 62
7
 10
11.70161133
 20
6.18626953
  0
VERTEX
  8
EGA-729.PLT
 62
7
 10
11.72102856
 20
6.21381689
  0
VERTEX
  8
EGA-729.PLT
 62
7
 10
11.74312500
 20
6.23975000
  0
VERTEX
  8
EGA-729.PLT
 62
7
 10
11.76776440
 20
6.26378467
  0
VERTEX
  8
EGA-729.PLT
 62
7
 10
11.79481055
 20
6.28563672
  0
VERTEX
  8
EGA-729.PLT
 62
7
 10
11.82412720
 20
6.30502197
  0
VERTEX
  8
EGA-729.PLT
 62
7
 10
11.85557812
 20
6.32165625
  0
VERTEX
  8
EGA-729.PLT
 62
7
 10
11.88902710
 20
6.33525537
  0
VERTEX
  8
EGA-729.PLT
 62
7
 10
11.92433789
 20
6.34553516
  0
VERTEX
  8
EGA-729.PLT
 62
7
 10
11.96137427
 20
6.35221143
  0
SEQEND
  0
POLYLINE
  8
EGA-729.PLT
 62
7
 66
1
 70
1
  0
VERTEX
  8
EGA-729.PLT
 62
7
 10
18.10300000
 20
6.11700000
  0
VERTEX
  8
EGA-729.PLT
 62
7
 10
18.07902881
 20
6.17090283
  0
VERTEX
  8
EGA-729.PLT
 62
7
 10
18.05218359
 20
6.22305078
  0
VERTEX
  8
EGA-729.PLT
 62
7
 10
18.02256689
 20
6.27335303
  0
VERTEX
  8
EGA-729.PLT
 62
7
 10
17.99028125
 20
6.32171875
  0
VERTEX
  8
EGA-729.PLT
 62
7
 10
17.95542920
 20
6.36805713
  0
VERTEX
  8
EGA-729.PLT
 62
7
 10
17.91811328
 20
6.41227734
  0
VERTEX
  8
EGA-729.PLT
 62
7
 10
17.87843604
 20
6.45428857
  0
VERTEX
  8
EGA-729.PLT
 62
7
 10
17.83650000
 20
6.49400000
  0
VERTEX
  8
EGA-729.PLT
 62
7
 10
17.79240771
 20
6.53132080
  0
VERTEX
  8
EGA-729.PLT
 62
7
 10
17.74626172
 20
6.56616016
  0
VERTEX
  8
EGA-729.PLT
 62
7
 10
17.69816455
 20
6.59842725
  0
VERTEX
  8
EGA-729.PLT
 62
7
 10
17.64821875
 20
6.62803125
  0
VERTEX
  8
EGA-729.PLT
 62
7
 10
17.59652686
 20
6.65488135
  0
VERTEX
  8
EGA-729.PLT
 62
7
 10
17.54319141
 20
6.67888672
  0
VERTEX
  8
EGA-729.PLT
 62
7
 10
17.48831494
 20
6.69995654
  0
VERTEX
  8
EGA-729.PLT
 62
7
 10
17.43200000
 20
6.71800000
  0
VERTEX
  8
EGA-729.PLT
 62
7
 10
17.42500000
 20
6.69400000
  0
VERTEX
  8
EGA-729.PLT
 62
7
 10
17.47606958
 20
6.67192285
  0
VERTEX
  8
EGA-729.PLT
 62
7
 10
17.52572852
 20
6.64736719
  0
VERTEX
  8
EGA-729.PLT
 62
7
 10
17.57390210
 20
6.62040918
  0
VERTEX
  8
EGA-729.PLT
 62
7
 10
17.62051562
 20
6.59112500
  0
VERTEX
  8
EGA-729.PLT
 62
7
 10
17.66549438
 20
6.55959082
  0
VERTEX
  8
EGA-729.PLT
 62
7
 10
17.70876367
 20
6.52588281
  0
VERTEX
  8
EGA-729.PLT
 62
7
 10
17.75024878
 20
6.49007715
  0
VERTEX
  8
EGA-729.PLT
 62
7
 10
17.78987500
 20
6.45225000
  0
VERTEX
  8
EGA-729.PLT
 62
7
 10
17.82756763
 20
6.41247754
  0
VERTEX
  8
EGA-729.PLT
 62
7
 10
17.86325195
 20
6.37083594
  0
VERTEX
  8
EGA-729.PLT
 62
7
 10
17.89685327
 20
6.32740137
  0
VERTEX
  8
EGA-729.PLT
 62
7
 10
17.92829688
 20
6.28225000
  0
VERTEX
  8
EGA-729.PLT
 62
7
 10
17.95750806
 20
6.23545801
  0
VERTEX
  8
EGA-729.PLT
 62
7
 10
17.98441211
 20
6.18710156
  0
VERTEX
  8
EGA-729.PLT
 62
7
 10
18.00893433
 20
6.13725684
  0
VERTEX
  8
EGA-729.PLT
 62
7
 10
18.03100000
 20
6.08600000
  0
SEQEND
  0
POLYLINE
  8
EGA-729.PLT
 62
7
 66
1
 70
1
  0
VERTEX
  8
EGA-729.PLT
 62
7
 10
5.89700000
 20
6.11700000
  0
VERTEX
  8
EGA-729.PLT
 62
7
 10
5.96900000
 20
6.08600000
  0
VERTEX
  8
EGA-729.PLT
 62
7
 10
5.99106567
 20
6.13725684
  0
VERTEX
  8
EGA-729.PLT
 62
7
 10
6.01558789
 20
6.18710156
  0
VERTEX
  8
EGA-729.PLT
 62
7
 10
6.04249194
 20
6.23545801
  0
VERTEX
  8
EGA-729.PLT
 62
7
 10
6.07170313
 20
6.28225000
  0
VERTEX
  8
EGA-729.PLT
 62
7
 10
6.10314673
 20
6.32740137
  0
VERTEX
  8
EGA-729.PLT
 62
7
 10
6.13674805
 20
6.37083594
  0
VERTEX
  8
EGA-729.PLT
 62
7
 10
6.17243237
 20
6.41247754
  0
VERTEX
  8
EGA-729.PLT
 62
7
 10
6.21012500
 20
6.45225000
  0
VERTEX
  8
EGA-729.PLT
 62
7
 10
6.24975122
 20
6.49007715
  0
VERTEX
  8
EGA-729.PLT
 62
7
 10
6.29123633
 20
6.52588281
  0
VERTEX
  8
EGA-729.PLT
 62
7
 10
6.33450562
 20
6.55959082
  0
VERTEX
  8
EGA-729.PLT
 62
7
 10
6.37948437
 20
6.59112500
  0
VERTEX
  8
EGA-729.PLT
 62
7
 10
6.42609790
 20
6.62040918
  0
VERTEX
  8
EGA-729.PLT
 62
7
 10
6.47427148
 20
6.64736719
  0
VERTEX
  8
EGA-729.PLT
 62
7
 10
6.52393042
 20
6.67192285
  0
VERTEX
  8
EGA-729.PLT
 62
7
 10
6.57500000
 20
6.69400000
  0
VERTEX
  8
EGA-729.PLT
 62
7
 10
6.56800000
 20
6.71800000
  0
VERTEX
  8
EGA-729.PLT
 62
7
 10
6.51168506
 20
6.69995654
  0
VERTEX
  8
EGA-729.PLT
 62
7
 10
6.45680859
 20
6.67888672
  0
VERTEX
  8
EGA-729.PLT
 62
7
 10
6.40347314
 20
6.65488135
  0
VERTEX
  8
EGA-729.PLT
 62
7
 10
6.35178125
 20
6.62803125
  0
VERTEX
  8
EGA-729.PLT
 62
7
 10
6.30183545
 20
6.59842725
  0
VERTEX
  8
EGA-729.PLT
 62
7
 10
6.25373828
 20
6.56616016
  0
VERTEX
  8
EGA-729.PLT
 62
7
 10
6.20759229
 20
6.53132080
  0
VERTEX
  8
EGA-729.PLT
 62
7
 10
6.16350000
 20
6.49400000
  0
VERTEX
  8
EGA-729.PLT
 62
7
 10
6.12156396
 20
6.45428857
  0
VERTEX
  8
EGA-729.PLT
 62
7
 10
6.08188672
 20
6.41227734
  0
VERTEX
  8
EGA-729.PLT
 62
7
 10
6.04457080
 20
6.36805713
  0
VERTEX
  8
EGA-729.PLT
 62
7
 10
6.00971875
 20
6.32171875
  0
VERTEX
  8
EGA-729.PLT
 62
7
 10
5.97743311
 20
6.27335303
  0
VERTEX
  8
EGA-729.PLT
 62
7
 10
5.94781641
 20
6.22305078
  0
VERTEX
  8
EGA-729.PLT
 62
7
 10
5.92097119
 20
6.17090283
  0
SEQEND
  0
POLYLINE
  8
EGA-729.PLT
 62
7
 66
1
 70
1
  0
VERTEX
  8
EGA-729.PLT
 62
7
 10
13.64900000
 20
5.35300000
  0
VERTEX
  8
EGA-729.PLT
 62
7
 10
13.64862500
 20
5.30578125
  0
VERTEX
  8
EGA-729.PLT
 62
7
 10
13.65200000
 20
5.25875000
  0
VERTEX
  8
EGA-729.PLT
 62
7
 10
13.65912500
 20
5.21209375
  0
VERTEX
  8
EGA-729.PLT
 62
7
 10
13.67000000
 20
5.16600000
  0
VERTEX
  8
EGA-729.PLT
 62
7
 10
13.58957227
 20
5.15043750
  0
VERTEX
  8
EGA-729.PLT
 62
7
 10
13.50882813
 20
5.13750000
  0
VERTEX
  8
EGA-729.PLT
 62
7
 10
13.42782617
 20
5.12718750
  0
VERTEX
  8
EGA-729.PLT
 62
7
 10
13.34662500
 20
5.11950000
  0
VERTEX
  8
EGA-729.PLT
 62
7
 10
13.26528320
 20
5.11443750
  0
VERTEX
  8
EGA-729.PLT
 62
7
 10
13.18385938
 20
5.11200000
  0
VERTEX
  8
EGA-729.PLT
 62
7
 10
13.10241211
 20
5.11218750
  0
VERTEX
  8
EGA-729.PLT
 62
7
 10
13.02100000
 20
5.11500000
  0
VERTEX
  8
EGA-729.PLT
 62
7
 10
13.03745313
 20
5.16395312
  0
VERTEX
  8
EGA-729.PLT
 62
7
 10
13.05662500
 20
5.21187500
  0
VERTEX
  8
EGA-729.PLT
 62
7
 10
13.07823437
 20
5.25885938
  0
VERTEX
  8
EGA-729.PLT
 62
7
 10
13.10200000
 20
5.30500000
  0
VERTEX
  8
EGA-729.PLT
 62
7
 10
13.23851563
 20
5.31193750
  0
VERTEX
  8
EGA-729.PLT
 62
7
 10
13.37587500
 20
5.32225000
  0
VERTEX
  8
EGA-729.PLT
 62
7
 10
13.51304688
 20
5.33593750
  0
SEQEND
  0
POLYLINE
  8
EGA-729.PLT
 62
7
 66
1
 70
1
  0
VERTEX
  8
EGA-729.PLT
 62
7
 10
10.35100000
 20
5.35300000
  0
VERTEX
  8
EGA-729.PLT
 62
7
 10
10.48695312
 20
5.33593750
  0
VERTEX
  8
EGA-729.PLT
 62
7
 10
10.62412500
 20
5.32225000
  0
VERTEX
  8
EGA-729.PLT
 62
7
 10
10.76148438
 20
5.31193750
  0
VERTEX
  8
EGA-729.PLT
 62
7
 10
10.89800000
 20
5.30500000
  0
VERTEX
  8
EGA-729.PLT
 62
7
 10
10.92176563
 20
5.25885938
  0
VERTEX
  8
EGA-729.PLT
 62
7
 10
10.94337500
 20
5.21187500
  0
VERTEX
  8
EGA-729.PLT
 62
7
 10
10.96254687
 20
5.16395312
  0
VERTEX
  8
EGA-729.PLT
 62
7
 10
10.97900000
 20
5.11500000
  0
VERTEX
  8
EGA-729.PLT
 62
7
 10
10.89758789
 20
5.11218750
  0
VERTEX
  8
EGA-729.PLT
 62
7
 10
10.81614062
 20
5.11200000
  0
VERTEX
  8
EGA-729.PLT
 62
7
 10
10.73471680
 20
5.11443750
  0
VERTEX
  8
EGA-729.PLT
 62
7
 10
10.65337500
 20
5.11950000
  0
VERTEX
  8
EGA-729.PLT
 62
7
 10
10.57217383
 20
5.12718750
  0
VERTEX
  8
EGA-729.PLT
 62
7
 10
10.49117187
 20
5.13750000
  0
VERTEX
  8
EGA-729.PLT
 62
7
 10
10.41042773
 20
5.15043750
  0
VERTEX
  8
EGA-729.PLT
 62
7
 10
10.33000000
 20
5.16600000
  0
VERTEX
  8
EGA-729.PLT
 62
7
 10
10.34087500
 20
5.21209375
  0
VERTEX
  8
EGA-729.PLT
 62
7
 10
10.34800000
 20
5.25875000
  0
VERTEX
  8
EGA-729.PLT
 62
7
 10
10.35137500
 20
5.30578125
  0
SEQEND
  0
POLYLINE
  8
EGA-729.PLT
 62
7
 66
1
 70
1
  0
VERTEX
  8
EGA-729.PLT
 62
7
 10
14.60600000
 20
4.88900000
  0
VERTEX
  8
EGA-729.PLT
 62
7
 10
14.59236426
 20
4.94349634
  0
VERTEX
  8
EGA-729.PLT
 62
7
 10
14.57552344
 20
4.99665820
  0
VERTEX
  8
EGA-729.PLT
 62
7
 10
14.55557715
 20
5.04836987
  0
VERTEX
  8
EGA-729.PLT
 62
7
 10
14.53262500
 20
5.09851563
  0
VERTEX
  8
EGA-729.PLT
 62
7
 10
14.50676660
 20
5.14697974
  0
VERTEX
  8
EGA-729.PLT
 62
7
 10
14.47810156
 20
5.19364648
  0
VERTEX
  8
EGA-729.PLT
 62
7
 10
14.44672949
 20
5.23840015
  0
VERTEX
  8
EGA-729.PLT
 62
7
 10
14.41275000
 20
5.28112500
  0
VERTEX
  8
EGA-729.PLT
 62
7
 10
14.37626270
 20
5.32170532
  0
VERTEX
  8
EGA-729.PLT
 62
7
 10
14.33736719
 20
5.36002539
  0
VERTEX
  8
EGA-729.PLT
 62
7
 10
14.29616309
 20
5.39596948
  0
VERTEX
  8
EGA-729.PLT
 62
7
 10
14.25275000
 20
5.42942188
  0
VERTEX
  8
EGA-729.PLT
 62
7
 10
14.20722754
 20
5.46026685
  0
VERTEX
  8
EGA-729.PLT
 62
7
 10
14.15969531
 20
5.48838867
  0
VERTEX
  8
EGA-729.PLT
 62
7
 10
14.11025293
 20
5.51367163
  0
VERTEX
  8
EGA-729.PLT
 62
7
 10
14.05900000
 20
5.53600000
  0
VERTEX
  8
EGA-729.PLT
 62
7
 10
14.02100000
 20
5.44300000
  0
VERTEX
  8
EGA-729.PLT
 62
7
 10
14.06835620
 20
5.42270313
  0
VERTEX
  8
EGA-729.PLT
 62
7
 10
14.11438086
 20
5.40010938
  0
VERTEX
  8
EGA-729.PLT
 62
7
 10
14.15900806
 20
5.37528906
  0
VERTEX
  8
EGA-729.PLT
 62
7
 10
14.20217187
 20
5.34831250
  0
VERTEX
  8
EGA-729.PLT
 62
7
 10
14.24380640
 20
5.31925000
  0
VERTEX
  8
EGA-729.PLT
 62
7
 10
14.28384570
 20
5.28817187
  0
VERTEX
  8
EGA-729.PLT
 62
7
 10
14.32222388
 20
5.25514844
  0
VERTEX
  8
EGA-729.PLT
 62
7
 10
14.35887500
 20
5.22025000
  0
VERTEX
  8
EGA-729.PLT
 62
7
 10
14.39373315
 20
5.18354688
  0
VERTEX
  8
EGA-729.PLT
 62
7
 10
14.42673242
 20
5.14510937
  0
VERTEX
  8
EGA-729.PLT
 62
7
 10
14.45780688
 20
5.10500781
  0
VERTEX
  8
EGA-729.PLT
 62
7
 10
14.48689062
 20
5.06331250
  0
VERTEX
  8
EGA-729.PLT
 62
7
 10
14.51391772
 20
5.02009375
  0
VERTEX
  8
EGA-729.PLT
 62
7
 10
14.53882227
 20
4.97542188
  0
VERTEX
  8
EGA-729.PLT
 62
7
 10
14.56153833
 20
4.92936719
  0
VERTEX
  8
EGA-729.PLT
 62
7
 10
14.58200000
 20
4.88200000
  0
SEQEND
  0
POLYLINE
  8
EGA-729.PLT
 62
7
 66
1
 70
1
  0
VERTEX
  8
EGA-729.PLT
 62
7
 10
9.39400000
 20
4.88900000
  0
VERTEX
  8
EGA-729.PLT
 62
7
 10
9.41800000
 20
4.88200000
  0
VERTEX
  8
EGA-729.PLT
 62
7
 10
9.43846167
 20
4.92936719
  0
VERTEX
  8
EGA-729.PLT
 62
7
 10
9.46117773
 20
4.97542188
  0
VERTEX
  8
EGA-729.PLT
 62
7
 10
9.48608228
 20
5.02009375
  0
VERTEX
  8
EGA-729.PLT
 62
7
 10
9.51310938
 20
5.06331250
  0
VERTEX
  8
EGA-729.PLT
 62
7
 10
9.54219312
 20
5.10500781
  0
VERTEX
  8
EGA-729.PLT
 62
7
 10
9.57326758
 20
5.14510937
  0
VERTEX
  8
EGA-729.PLT
 62
7
 10
9.60626685
 20
5.18354688
  0
VERTEX
  8
EGA-729.PLT
 62
7
 10
9.64112500
 20
5.22025000
  0
VERTEX
  8
EGA-729.PLT
 62
7
 10
9.67777612
 20
5.25514844
  0
VERTEX
  8
EGA-729.PLT
 62
7
 10
9.71615430
 20
5.28817187
  0
VERTEX
  8
EGA-729.PLT
 62
7
 10
9.75619360
 20
5.31925000
  0
VERTEX
  8
EGA-729.PLT
 62
7
 10
9.79782813
 20
5.34831250
  0
VERTEX
  8
EGA-729.PLT
 62
7
 10
9.84099194
 20
5.37528906
  0
VERTEX
  8
EGA-729.PLT
 62
7
 10
9.88561914
 20
5.40010938
  0
VERTEX
  8
EGA-729.PLT
 62
7
 10
9.93164380
 20
5.42270313
  0
VERTEX
  8
EGA-729.PLT
 62
7
 10
9.97900000
 20
5.44300000
  0
VERTEX
  8
EGA-729.PLT
 62
7
 10
9.94100000
 20
5.53600000
  0
VERTEX
  8
EGA-729.PLT
 62
7
 10
9.88974707
 20
5.51367163
  0
VERTEX
  8
EGA-729.PLT
 62
7
 10
9.84030469
 20
5.48838867
  0
VERTEX
  8
EGA-729.PLT
 62
7
 10
9.79277246
 20
5.46026685
  0
VERTEX
  8
EGA-729.PLT
 62
7
 10
9.74725000
 20
5.42942188
  0
VERTEX
  8
EGA-729.PLT
 62
7
 10
9.70383691
 20
5.39596948
  0
VERTEX
  8
EGA-729.PLT
 62
7
 10
9.66263281
 20
5.36002539
  0
VERTEX
  8
EGA-729.PLT
 62
7
 10
9.62373730
 20
5.32170532
  0
VERTEX
  8
EGA-729.PLT
 62
7
 10
9.58725000
 20
5.28112500
  0
VERTEX
  8
EGA-729.PLT
 62
7
 10
9.55327051
 20
5.23840015
  0
VERTEX
  8
EGA-729.PLT
 62
7
 10
9.52189844
 20
5.19364648
  0
VERTEX
  8
EGA-729.PLT
 62
7
 10
9.49323340
 20
5.14697974
  0
VERTEX
  8
EGA-729.PLT
 62
7
 10
9.46737500
 20
5.09851563
  0
VERTEX
  8
EGA-729.PLT
 62
7
 10
9.44442285
 20
5.04836987
  0
VERTEX
  8
EGA-729.PLT
 62
7
 10
9.42447656
 20
4.99665820
  0
VERTEX
  8
EGA-729.PLT
 62
7
 10
9.40763574
 20
4.94349634
  0
SEQEND
  0
POLYLINE
  8
EGA-729.PLT
 62
7
 66
1
 70
1
  0
VERTEX
  8
EGA-729.PLT
 62
7
 10
4.13400000
 20
6.02900000
  0
VERTEX
  8
EGA-729.PLT
 62
7
 10
4.07237109
 20
6.08856055
  0
VERTEX
  8
EGA-729.PLT
 62
7
 10
4.01278125
 20
6.15017187
  0
VERTEX
  8
EGA-729.PLT
 62
7
 10
3.95530078
 20
6.21372852
  0
VERTEX
  8
EGA-729.PLT
 62
7
 10
3.90000000
 20
6.27912500
  0
VERTEX
  8
EGA-729.PLT
 62
7
 10
3.84694922
 20
6.34625586
  0
VERTEX
  8
EGA-729.PLT
 62
7
 10
3.79621875
 20
6.41501562
  0
VERTEX
  8
EGA-729.PLT
 62
7
 10
3.74787891
 20
6.48529883
  0
VERTEX
  8
EGA-729.PLT
 62
7
 10
3.70200000
 20
6.55700000
  0
VERTEX
  8
EGA-729.PLT
 62
7
 10
3.64500000
 20
6.52100000
  0
VERTEX
  8
EGA-729.PLT
 62
7
 10
3.69317188
 20
6.44855273
  0
VERTEX
  8
EGA-729.PLT
 62
7
 10
3.74462500
 20
6.37829688
  0
VERTEX
  8
EGA-729.PLT
 62
7
 10
3.79926562
 20
6.31036133
  0
VERTEX
  8
EGA-729.PLT
 62
7
 10
3.85700000
 20
6.24487500
  0
VERTEX
  8
EGA-729.PLT
 62
7
 10
3.91773438
 20
6.18196680
  0
VERTEX
  8
EGA-729.PLT
 62
7
 10
3.98137500
 20
6.12176563
  0
VERTEX
  8
EGA-729.PLT
 62
7
 10
4.04782812
 20
6.06440039
  0
VERTEX
  8
EGA-729.PLT
 62
7
 10
4.11700000
 20
6.01000000
  0
VERTEX
  8
EGA-729.PLT
 62
7
 10
4.11800000
 20
6.00900000
  0
SEQEND
  0
POLYLINE
  8
EGA-729.PLT
 62
7
 66
1
 70
1
  0
VERTEX
  8
EGA-729.PLT
 62
7
 10
19.86600000
 20
6.02900000
  0
VERTEX
  8
EGA-729.PLT
 62
7
 10
19.88200000
 20
6.00900000
  0
VERTEX
  8
EGA-729.PLT
 62
7
 10
19.88300000
 20
6.01000000
  0
VERTEX
  8
EGA-729.PLT
 62
7
 10
19.95217188
 20
6.06440039
  0
VERTEX
  8
EGA-729.PLT
 62
7
 10
20.01862500
 20
6.12176563
  0
VERTEX
  8
EGA-729.PLT
 62
7
 10
20.08226563
 20
6.18196680
  0
VERTEX
  8
EGA-729.PLT
 62
7
 10
20.14300000
 20
6.24487500
  0
VERTEX
  8
EGA-729.PLT
 62
7
 10
20.20073438
 20
6.31036133
  0
VERTEX
  8
EGA-729.PLT
 62
7
 10
20.25537500
 20
6.37829688
  0
VERTEX
  8
EGA-729.PLT
 62
7
 10
20.30682812
 20
6.44855273
  0
VERTEX
  8
EGA-729.PLT
 62
7
 10
20.35500000
 20
6.52100000
  0
VERTEX
  8
EGA-729.PLT
 62
7
 10
20.29800000
 20
6.55700000
  0
VERTEX
  8
EGA-729.PLT
 62
7
 10
20.25212109
 20
6.48529883
  0
VERTEX
  8
EGA-729.PLT
 62
7
 10
20.20378125
 20
6.41501562
  0
VERTEX
  8
EGA-729.PLT
 62
7
 10
20.15305078
 20
6.34625586
  0
VERTEX
  8
EGA-729.PLT
 62
7
 10
20.10000000
 20
6.27912500
  0
VERTEX
  8
EGA-729.PLT
 62
7
 10
20.04469922
 20
6.21372852
  0
VERTEX
  8
EGA-729.PLT
 62
7
 10
19.98721875
 20
6.15017187
  0
VERTEX
  8
EGA-729.PLT
 62
7
 10
19.92762891
 20
6.08856055
  0
SEQEND
  0
POLYLINE
  8
EGA-729.PLT
 62
7
 66
1
 70
1
  0
VERTEX
  8
EGA-729.PLT
 62
7
 10
15.56700000
 20
5.57100000
  0
VERTEX
  8
EGA-729.PLT
 62
7
 10
15.60578906
 20
5.51374023
  0
VERTEX
  8
EGA-729.PLT
 62
7
 10
15.64781250
 20
5.45904688
  0
VERTEX
  8
EGA-729.PLT
 62
7
 10
15.69292969
 20
5.40704883
  0
VERTEX
  8
EGA-729.PLT
 62
7
 10
15.74100000
 20
5.35787500
  0
VERTEX
  8
EGA-729.PLT
 62
7
 10
15.79188281
 20
5.31165430
  0
VERTEX
  8
EGA-729.PLT
 62
7
 10
15.84543750
 20
5.26851563
  0
VERTEX
  8
EGA-729.PLT
 62
7
 10
15.90152344
 20
5.22858789
  0
VERTEX
  8
EGA-729.PLT
 62
7
 10
15.96000000
 20
5.19200000
  0
VERTEX
  8
EGA-729.PLT
 62
7
 10
15.97400000
 20
5.21200000
  0
VERTEX
  8
EGA-729.PLT
 62
7
 10
15.92169922
 20
5.25262305
  0
VERTEX
  8
EGA-729.PLT
 62
7
 10
15.87134375
 20
5.29567188
  0
VERTEX
  8
EGA-729.PLT
 62
7
 10
15.82300391
 20
5.34104102
  0
VERTEX
  8
EGA-729.PLT
 62
7
 10
15.77675000
 20
5.38862500
  0
VERTEX
  8
EGA-729.PLT
 62
7
 10
15.73265234
 20
5.43831836
  0
VERTEX
  8
EGA-729.PLT
 62
7
 10
15.69078125
 20
5.49001562
  0
VERTEX
  8
EGA-729.PLT
 62
7
 10
15.65120703
 20
5.54361133
  0
VERTEX
  8
EGA-729.PLT
 62
7
 10
15.61400000
 20
5.59900000
  0
SEQEND
  0
POLYLINE
  8
EGA-729.PLT
 62
7
 66
1
 70
1
  0
VERTEX
  8
EGA-729.PLT
 62
7
 10
8.43300000
 20
5.57100000
  0
VERTEX
  8
EGA-729.PLT
 62
7
 10
8.38600000
 20
5.59900000
  0
VERTEX
  8
EGA-729.PLT
 62
7
 10
8.34879297
 20
5.54361133
  0
VERTEX
  8
EGA-729.PLT
 62
7
 10
8.30921875
 20
5.49001562
  0
VERTEX
  8
EGA-729.PLT
 62
7
 10
8.26734766
 20
5.43831836
  0
VERTEX
  8
EGA-729.PLT
 62
7
 10
8.22325000
 20
5.38862500
  0
VERTEX
  8
EGA-729.PLT
 62
7
 10
8.17699609
 20
5.34104102
  0
VERTEX
  8
EGA-729.PLT
 62
7
 10
8.12865625
 20
5.29567188
  0
VERTEX
  8
EGA-729.PLT
 62
7
 10
8.07830078
 20
5.25262305
  0
VERTEX
  8
EGA-729.PLT
 62
7
 10
8.02600000
 20
5.21200000
  0
VERTEX
  8
EGA-729.PLT
 62
7
 10
8.04000000
 20
5.19200000
  0
VERTEX
  8
EGA-729.PLT
 62
7
 10
8.09847656
 20
5.22858789
  0
VERTEX
  8
EGA-729.PLT
 62
7
 10
8.15456250
 20
5.26851563
  0
VERTEX
  8
EGA-729.PLT
 62
7
 10
8.20811719
 20
5.31165430
  0
VERTEX
  8
EGA-729.PLT
 62
7
 10
8.25900000
 20
5.35787500
  0
VERTEX
  8
EGA-729.PLT
 62
7
 10
8.30707031
 20
5.40704883
  0
VERTEX
  8
EGA-729.PLT
 62
7
 10
8.35218750
 20
5.45904688
  0
VERTEX
  8
EGA-729.PLT
 62
7
 10
8.39421094
 20
5.51374023
  0
SEQEND
  0
POLYLINE
  8
EGA-729.PLT
 62
7
 66
1
 70
1
  0
VERTEX
  8
EGA-729.PLT
 62
7
 10
15.91900000
 20
5.85900000
  0
VERTEX
  8
EGA-729.PLT
 62
7
 10
15.85000000
 20
5.84300000
  0
VERTEX
  8
EGA-729.PLT
 62
7
 10
15.85000000
 20
5.84200000
  0
VERTEX
  8
EGA-729.PLT
 62
7
 10
15.86866602
 20
5.77357227
  0
VERTEX
  8
EGA-729.PLT
 62
7
 10
15.89301563
 20
5.70726562
  0
VERTEX
  8
EGA-729.PLT
 62
7
 10
15.92282617
 20
5.64341992
  0
VERTEX
  8
EGA-729.PLT
 62
7
 10
15.95787500
 20
5.58237500
  0
VERTEX
  8
EGA-729.PLT
 62
7
 10
15.99793945
 20
5.52447070
  0
VERTEX
  8
EGA-729.PLT
 62
7
 10
16.04279688
 20
5.47004688
  0
VERTEX
  8
EGA-729.PLT
 62
7
 10
16.09222461
 20
5.41944336
  0
VERTEX
  8
EGA-729.PLT
 62
7
 10
16.14600000
 20
5.37300000
  0
VERTEX
  8
EGA-729.PLT
 62
7
 10
16.16400000
 20
5.39100000
  0
VERTEX
  8
EGA-729.PLT
 62
7
 10
16.12201367
 20
5.44310156
  0
VERTEX
  8
EGA-729.PLT
 62
7
 10
16.08310937
 20
5.49731250
  0
VERTEX
  8
EGA-729.PLT
 62
7
 10
16.04736914
 20
5.55349219
  0
VERTEX
  8
EGA-729.PLT
 62
7
 10
16.01487500
 20
5.61150000
  0
VERTEX
  8
EGA-729.PLT
 62
7
 10
15.98570898
 20
5.67119531
  0
VERTEX
  8
EGA-729.PLT
 62
7
 10
15.95995313
 20
5.73243750
  0
VERTEX
  8
EGA-729.PLT
 62
7
 10
15.93768945
 20
5.79508594
  0
SEQEND
  0
POLYLINE
  8
EGA-729.PLT
 62
7
 66
1
 70
1
  0
VERTEX
  8
EGA-729.PLT
 62
7
 10
8.08100000
 20
5.85900000
  0
VERTEX
  8
EGA-729.PLT
 62
7
 10
8.06231055
 20
5.79508594
  0
VERTEX
  8
EGA-729.PLT
 62
7
 10
8.04004687
 20
5.73243750
  0
VERTEX
  8
EGA-729.PLT
 62
7
 10
8.01429102
 20
5.67119531
  0
VERTEX
  8
EGA-729.PLT
 62
7
 10
7.98512500
 20
5.61150000
  0
VERTEX
  8
EGA-729.PLT
 62
7
 10
7.95263086
 20
5.55349219
  0
VERTEX
  8
EGA-729.PLT
 62
7
 10
7.91689062
 20
5.49731250
  0
VERTEX
  8
EGA-729.PLT
 62
7
 10
7.87798633
 20
5.44310156
  0
VERTEX
  8
EGA-729.PLT
 62
7
 10
7.83600000
 20
5.39100000
  0
VERTEX
  8
EGA-729.PLT
 62
7
 10
7.85400000
 20
5.37300000
  0
VERTEX
  8
EGA-729.PLT
 62
7
 10
7.90777539
 20
5.41944336
  0
VERTEX
  8
EGA-729.PLT
 62
7
 10
7.95720313
 20
5.47004688
  0
VERTEX
  8
EGA-729.PLT
 62
7
 10
8.00206055
 20
5.52447070
  0
VERTEX
  8
EGA-729.PLT
 62
7
 10
8.04212500
 20
5.58237500
  0
VERTEX
  8
EGA-729.PLT
 62
7
 10
8.07717383
 20
5.64341992
  0
VERTEX
  8
EGA-729.PLT
 62
7
 10
8.10698437
 20
5.70726562
  0
VERTEX
  8
EGA-729.PLT
 62
7
 10
8.13133398
 20
5.77357227
  0
VERTEX
  8
EGA-729.PLT
 62
7
 10
8.15000000
 20
5.84200000
  0
VERTEX
  8
EGA-729.PLT
 62
7
 10
8.15000000
 20
5.84300000
  0
SEQEND
  0
POLYLINE
  8
EGA-729.PLT
 62
7
 66
1
 70
1
  0
VERTEX
  8
EGA-729.PLT
 62
7
 10
17.42100000
 20
5.82600000
  0
VERTEX
  8
EGA-729.PLT
 62
7
 10
17.42761890
 20
5.87251147
  0
VERTEX
  8
EGA-729.PLT
 62
7
 10
17.43101367
 20
5.91895117
  0
VERTEX
  8
EGA-729.PLT
 62
7
 10
17.43124146
 20
5.96517700
  0
VERTEX
  8
EGA-729.PLT
 62
7
 10
17.42835937
 20
6.01104687
  0
VERTEX
  8
EGA-729.PLT
 62
7
 10
17.42242456
 20
6.05641870
  0
VERTEX
  8
EGA-729.PLT
 62
7
 10
17.41349414
 20
6.10115039
  0
VERTEX
  8
EGA-729.PLT
 62
7
 10
17.40162524
 20
6.14509985
  0
VERTEX
  8
EGA-729.PLT
 62
7
 10
17.38687500
 20
6.18812500
  0
VERTEX
  8
EGA-729.PLT
 62
7
 10
17.36930054
 20
6.23008374
  0
VERTEX
  8
EGA-729.PLT
 62
7
 10
17.34895898
 20
6.27083398
  0
VERTEX
  8
EGA-729.PLT
 62
7
 10
17.32590747
 20
6.31023364
  0
VERTEX
  8
EGA-729.PLT
 62
7
 10
17.30020312
 20
6.34814063
  0
VERTEX
  8
EGA-729.PLT
 62
7
 10
17.27190308
 20
6.38441284
  0
VERTEX
  8
EGA-729.PLT
 62
7
 10
17.24106445
 20
6.41890820
  0
VERTEX
  8
EGA-729.PLT
 62
7
 10
17.20774438
 20
6.45148462
  0
VERTEX
  8
EGA-729.PLT
 62
7
 10
17.17200000
 20
6.48200000
  0
VERTEX
  8
EGA-729.PLT
 62
7
 10
17.15500000
 20
6.46300000
  0
VERTEX
  8
EGA-729.PLT
 62
7
 10
17.18207788
 20
6.42996484
  0
VERTEX
  8
EGA-729.PLT
 62
7
 10
17.20741992
 20
6.39578125
  0
VERTEX
  8
EGA-729.PLT
 62
7
 10
17.23100122
 20
6.36051953
  0
VERTEX
  8
EGA-729.PLT
 62
7
 10
17.25279688
 20
6.32425000
  0
VERTEX
  8
EGA-729.PLT
 62
7
 10
17.27278198
 20
6.28704297
  0
VERTEX
  8
EGA-729.PLT
 62
7
 10
17.29093164
 20
6.24896875
  0
VERTEX
  8
EGA-729.PLT
 62
7
 10
17.30722095
 20
6.21009766
  0
VERTEX
  8
EGA-729.PLT
 62
7
 10
17.32162500
 20
6.17050000
  0
VERTEX
  8
EGA-729.PLT
 62
7
 10
17.33411890
 20
6.13024609
  0
VERTEX
  8
EGA-729.PLT
 62
7
 10
17.34467773
 20
6.08940625
  0
VERTEX
  8
EGA-729.PLT
 62
7
 10
17.35327661
 20
6.04805078
  0
VERTEX
  8
EGA-729.PLT
 62
7
 10
17.35989062
 20
6.00625000
  0
VERTEX
  8
EGA-729.PLT
 62
7
 10
17.36449487
 20
5.96407422
  0
VERTEX
  8
EGA-729.PLT
 62
7
 10
17.36706445
 20
5.92159375
  0
VERTEX
  8
EGA-729.PLT
 62
7
 10
17.36757446
 20
5.87887891
  0
VERTEX
  8
EGA-729.PLT
 62
7
 10
17.36600000
 20
5.83600000
  0
SEQEND
  0
POLYLINE
  8
EGA-729.PLT
 62
7
 66
1
 70
1
  0
VERTEX
  8
EGA-729.PLT
 62
7
 10
6.57900000
 20
5.82600000
  0
VERTEX
  8
EGA-729.PLT
 62
7
 10
6.63400000
 20
5.83600000
  0
VERTEX
  8
EGA-729.PLT
 62
7
 10
6.63242554
 20
5.87887891
  0
VERTEX
  8
EGA-729.PLT
 62
7
 10
6.63293555
 20
5.92159375
  0
VERTEX
  8
EGA-729.PLT
 62
7
 10
6.63550513
 20
5.96407422
  0
VERTEX
  8
EGA-729.PLT
 62
7
 10
6.64010937
 20
6.00625000
  0
VERTEX
  8
EGA-729.PLT
 62
7
 10
6.64672339
 20
6.04805078
  0
VERTEX
  8
EGA-729.PLT
 62
7
 10
6.65532227
 20
6.08940625
  0
VERTEX
  8
EGA-729.PLT
 62
7
 10
6.66588110
 20
6.13024609
  0
VERTEX
  8
EGA-729.PLT
 62
7
 10
6.67837500
 20
6.17050000
  0
VERTEX
  8
EGA-729.PLT
 62
7
 10
6.69277905
 20
6.21009766
  0
VERTEX
  8
EGA-729.PLT
 62
7
 10
6.70906836
 20
6.24896875
  0
VERTEX
  8
EGA-729.PLT
 62
7
 10
6.72721802
 20
6.28704297
  0
VERTEX
  8
EGA-729.PLT
 62
7
 10
6.74720313
 20
6.32425000
  0
VERTEX
  8
EGA-729.PLT
 62
7
 10
6.76899878
 20
6.36051953
  0
VERTEX
  8
EGA-729.PLT
 62
7
 10
6.79258008
 20
6.39578125
  0
VERTEX
  8
EGA-729.PLT
 62
7
 10
6.81792212
 20
6.42996484
  0
VERTEX
  8
EGA-729.PLT
 62
7
 10
6.84500000
 20
6.46300000
  0
VERTEX
  8
EGA-729.PLT
 62
7
 10
6.82800000
 20
6.48200000
  0
VERTEX
  8
EGA-729.PLT
 62
7
 10
6.79225562
 20
6.45148462
  0
VERTEX
  8
EGA-729.PLT
 62
7
 10
6.75893555
 20
6.41890820
  0
VERTEX
  8
EGA-729.PLT
 62
7
 10
6.72809692
 20
6.38441284
  0
VERTEX
  8
EGA-729.PLT
 62
7
 10
6.69979687
 20
6.34814063
  0
VERTEX
  8
EGA-729.PLT
 62
7
 10
6.67409253
 20
6.31023364
  0
VERTEX
  8
EGA-729.PLT
 62
7
 10
6.65104102
 20
6.27083398
  0
VERTEX
  8
EGA-729.PLT
 62
7
 10
6.63069946
 20
6.23008374
  0
VERTEX
  8
EGA-729.PLT
 62
7
 10
6.61312500
 20
6.18812500
  0
VERTEX
  8
EGA-729.PLT
 62
7
 10
6.59837476
 20
6.14509985
  0
VERTEX
  8
EGA-729.PLT
 62
7
 10
6.58650586
 20
6.10115039
  0
VERTEX
  8
EGA-729.PLT
 62
7
 10
6.57757544
 20
6.05641870
  0
VERTEX
  8
EGA-729.PLT
 62
7
 10
6.57164062
 20
6.01104687
  0
VERTEX
  8
EGA-729.PLT
 62
7
 10
6.56875854
 20
5.96517700
  0
VERTEX
  8
EGA-729.PLT
 62
7
 10
6.56898633
 20
5.91895117
  0
VERTEX
  8
EGA-729.PLT
 62
7
 10
6.57238110
 20
5.87251147
  0
SEQEND
  0
POLYLINE
  8
EGA-729.PLT
 62
7
 66
1
 70
1
  0
VERTEX
  8
EGA-729.PLT
 62
7
 10
4.42600000
 20
6.11500000
  0
VERTEX
  8
EGA-729.PLT
 62
7
 10
4.39161133
 20
6.16406445
  0
VERTEX
  8
EGA-729.PLT
 62
7
 10
4.36201562
 20
6.21576563
  0
VERTEX
  8
EGA-729.PLT
 62
7
 10
4.33731836
 20
6.26974023
  0
VERTEX
  8
EGA-729.PLT
 62
7
 10
4.31762500
 20
6.32562500
  0
VERTEX
  8
EGA-729.PLT
 62
7
 10
4.30304102
 20
6.38305664
  0
VERTEX
  8
EGA-729.PLT
 62
7
 10
4.29367188
 20
6.44167187
  0
VERTEX
  8
EGA-729.PLT
 62
7
 10
4.28962305
 20
6.50110742
  0
VERTEX
  8
EGA-729.PLT
 62
7
 10
4.29100000
 20
6.56100000
  0
VERTEX
  8
EGA-729.PLT
 62
7
 10
4.23400000
 20
6.56300000
  0
VERTEX
  8
EGA-729.PLT
 62
7
 10
4.23486719
 20
6.49950781
  0
VERTEX
  8
EGA-729.PLT
 62
7
 10
4.24187500
 20
6.43681250
  0
VERTEX
  8
EGA-729.PLT
 62
7
 10
4.25488281
 20
6.37533594
  0
VERTEX
  8
EGA-729.PLT
 62
7
 10
4.27375000
 20
6.31550000
  0
VERTEX
  8
EGA-729.PLT
 62
7
 10
4.29833594
 20
6.25772656
  0
VERTEX
  8
EGA-729.PLT
 62
7
 10
4.32850000
 20
6.20243750
  0
VERTEX
  8
EGA-729.PLT
 62
7
 10
4.36410156
 20
6.15005469
  0
VERTEX
  8
EGA-729.PLT
 62
7
 10
4.40500000
 20
6.10100000
  0
SEQEND
  0
POLYLINE
  8
EGA-729.PLT
 62
7
 66
1
 70
1
  0
VERTEX
  8
EGA-729.PLT
 62
7
 10
19.57400000
 20
6.11500000
  0
VERTEX
  8
EGA-729.PLT
 62
7
 10
19.59500000
 20
6.10100000
  0
VERTEX
  8
EGA-729.PLT
 62
7
 10
19.63589844
 20
6.15005469
  0
VERTEX
  8
EGA-729.PLT
 62
7
 10
19.67150000
 20
6.20243750
  0
VERTEX
  8
EGA-729.PLT
 62
7
 10
19.70166406
 20
6.25772656
  0
VERTEX
  8
EGA-729.PLT
 62
7
 10
19.72625000
 20
6.31550000
  0
VERTEX
  8
EGA-729.PLT
 62
7
 10
19.74511719
 20
6.37533594
  0
VERTEX
  8
EGA-729.PLT
 62
7
 10
19.75812500
 20
6.43681250
  0
VERTEX
  8
EGA-729.PLT
 62
7
 10
19.76513281
 20
6.49950781
  0
VERTEX
  8
EGA-729.PLT
 62
7
 10
19.76600000
 20
6.56300000
  0
VERTEX
  8
EGA-729.PLT
 62
7
 10
19.70900000
 20
6.56100000
  0
VERTEX
  8
EGA-729.PLT
 62
7
 10
19.71037695
 20
6.50110742
  0
VERTEX
  8
EGA-729.PLT
 62
7
 10
19.70632812
 20
6.44167187
  0
VERTEX
  8
EGA-729.PLT
 62
7
 10
19.69695898
 20
6.38305664
  0
VERTEX
  8
EGA-729.PLT
 62
7
 10
19.68237500
 20
6.32562500
  0
VERTEX
  8
EGA-729.PLT
 62
7
 10
19.66268164
 20
6.26974023
  0
VERTEX
  8
EGA-729.PLT
 62
7
 10
19.63798437
 20
6.21576563
  0
VERTEX
  8
EGA-729.PLT
 62
7
 10
19.60838867
 20
6.16406445
  0
SEQEND
  0
POLYLINE
  8
EGA-729.PLT
 62
7
 66
1
 70
1
  0
VERTEX
  8
EGA-729.PLT
 62
7
 10
13.65500000
 20
7.04300000
  0
VERTEX
  8
EGA-729.PLT
 62
7
 10
13.68621289
 20
6.94570508
  0
VERTEX
  8
EGA-729.PLT
 62
7
 10
13.71007813
 20
6.84682813
  0
VERTEX
  8
EGA-729.PLT
 62
7
 10
13.72656055
 20
6.74675586
  0
VERTEX
  8
EGA-729.PLT
 62
7
 10
13.73562500
 20
6.64587500
  0
VERTEX
  8
EGA-729.PLT
 62
7
 10
13.73723633
 20
6.54457227
  0
VERTEX
  8
EGA-729.PLT
 62
7
 10
13.73135938
 20
6.44323438
  0
VERTEX
  8
EGA-729.PLT
 62
7
 10
13.71795898
 20
6.34224805
  0
VERTEX
  8
EGA-729.PLT
 62
7
 10
13.69700000
 20
6.24200000
  0
VERTEX
  8
EGA-729.PLT
 62
7
 10
13.79500000
 20
6.21800000
  0
VERTEX
  8
EGA-729.PLT
 62
7
 10
13.80681470
 20
6.27124634
  0
VERTEX
  8
EGA-729.PLT
 62
7
 10
13.81601758
 20
6.32479883
  0
VERTEX
  8
EGA-729.PLT
 62
7
 10
13.82262183
 20
6.37856519
  0
VERTEX
  8
EGA-729.PLT
 62
7
 10
13.82664063
 20
6.43245313
  0
VERTEX
  8
EGA-729.PLT
 62
7
 10
13.82808716
 20
6.48637036
  0
VERTEX
  8
EGA-729.PLT
 62
7
 10
13.82697461
 20
6.54022461
  0
VERTEX
  8
EGA-729.PLT
 62
7
 10
13.82331616
 20
6.59392358
  0
VERTEX
  8
EGA-729.PLT
 62
7
 10
13.81712500
 20
6.64737500
  0
VERTEX
  8
EGA-729.PLT
 62
7
 10
13.80841431
 20
6.70048657
  0
VERTEX
  8
EGA-729.PLT
 62
7
 10
13.79719727
 20
6.75316602
  0
VERTEX
  8
EGA-729.PLT
 62
7
 10
13.78348706
 20
6.80532104
  0
VERTEX
  8
EGA-729.PLT
 62
7
 10
13.76729688
 20
6.85685938
  0
VERTEX
  8
EGA-729.PLT
 62
7
 10
13.74863989
 20
6.90768872
  0
VERTEX
  8
EGA-729.PLT
 62
7
 10
13.72752930
 20
6.95771680
  0
VERTEX
  8
EGA-729.PLT
 62
7
 10
13.70397827
 20
7.00685132
  0
VERTEX
  8
EGA-729.PLT
 62
7
 10
13.67800000
 20
7.05500000
  0
SEQEND
  0
POLYLINE
  8
EGA-729.PLT
 62
7
 66
1
 70
1
  0
VERTEX
  8
EGA-729.PLT
 62
7
 10
10.34500000
 20
7.04300000
  0
VERTEX
  8
EGA-729.PLT
 62
7
 10
10.32200000
 20
7.05500000
  0
VERTEX
  8
EGA-729.PLT
 62
7
 10
10.29602173
 20
7.00685132
  0
VERTEX
  8
EGA-729.PLT
 62
7
 10
10.27247070
 20
6.95771680
  0
VERTEX
  8
EGA-729.PLT
 62
7
 10
10.25136011
 20
6.90768872
  0
VERTEX
  8
EGA-729.PLT
 62
7
 10
10.23270313
 20
6.85685938
  0
VERTEX
  8
EGA-729.PLT
 62
7
 10
10.21651294
 20
6.80532104
  0
VERTEX
  8
EGA-729.PLT
 62
7
 10
10.20280273
 20
6.75316602
  0
VERTEX
  8
EGA-729.PLT
 62
7
 10
10.19158569
 20
6.70048657
  0
VERTEX
  8
EGA-729.PLT
 62
7
 10
10.18287500
 20
6.64737500
  0
VERTEX
  8
EGA-729.PLT
 62
7
 10
10.17668384
 20
6.59392358
  0
VERTEX
  8
EGA-729.PLT
 62
7
 10
10.17302539
 20
6.54022461
  0
VERTEX
  8
EGA-729.PLT
 62
7
 10
10.17191284
 20
6.48637036
  0
VERTEX
  8
EGA-729.PLT
 62
7
 10
10.17335938
 20
6.43245313
  0
VERTEX
  8
EGA-729.PLT
 62
7
 10
10.17737817
 20
6.37856519
  0
VERTEX
  8
EGA-729.PLT
 62
7
 10
10.18398242
 20
6.32479883
  0
VERTEX
  8
EGA-729.PLT
 62
7
 10
10.19318530
 20
6.27124634
  0
VERTEX
  8
EGA-729.PLT
 62
7
 10
10.20500000
 20
6.21800000
  0
VERTEX
  8
EGA-729.PLT
 62
7
 10
10.30300000
 20
6.24200000
  0
VERTEX
  8
EGA-729.PLT
 62
7
 10
10.28204102
 20
6.34224805
  0
VERTEX
  8
EGA-729.PLT
 62
7
 10
10.26864063
 20
6.44323438
  0
VERTEX
  8
EGA-729.PLT
 62
7
 10
10.26276367
 20
6.54457227
  0
VERTEX
  8
EGA-729.PLT
 62
7
 10
10.26437500
 20
6.64587500
  0
VERTEX
  8
EGA-729.PLT
 62
7
 10
10.27343945
 20
6.74675586
  0
VERTEX
  8
EGA-729.PLT
 62
7
 10
10.28992187
 20
6.84682813
  0
VERTEX
  8
EGA-729.PLT
 62
7
 10
10.31378711
 20
6.94570508
  0
SEQEND
  0
ENDSEC
  0
EOF
