  0
SECTION
  2
HEADER
  9
$ACADVER
  1
AC1006
  9
$ATTMODE
 70
     1
  9
$AUNITS
 70
     0
  9
$AUPREC
 70
     4
  9
$AXISMODE
 70
     0
  9
$AXISUNIT
 10
0
 20
0
  9
$BLIPMODE
 70
     1
  9
$CHAMFERA
 40
0
  9
$CHAMFERB
 40
0
  9
$CLAYER
  7
0
  9
$COORDS
 70
     1
  9
$DIMASZ
 40
0.154729385739991
  9
$DIMCEN
 40
0.0625
  9
$DIMDLI
 40
0.38
  9
$DIMEXE
 40
0.0625
  9
$DIMEXO
 40
0.0625
  9
$DIMLIM
 70
     0
  9
$DIMSCALE
 40
1
  9
$DIMSE1
 70
     0
  9
$DIMSE2
 70
     0
  9
$DIMTAD
 70
     0
  9
$DIMTIH
 70
     1
  9
$DIMTM
 40
0
  9
$DIMTOH
 70
     1
  9
$DIMTOL
 70
     0
  9
$DIMTP
 40
0
  9
$DIMTSZ
 40
0
  9
$DIMTXT
 40
0.25
  9
$DRAGMODE
 70
     2
  9
$ELEVATION
 40
0
  9
$FILLETRAD
 40
0
  9
$FILLMODE
 70
     1
  9
$GRIDMODE
 70
     1
  9
$GRIDUNIT
 10
1
 20
1
  9
$INSBASE
 10
0
 20
0
  9
$LIMCHECK
 70
     0
  9
$LTSCALE
 40
1
  9
$LUNITS
 70
     2
  9
$LUPREC
 70
     4
  9
$MENU
  1
acad
  9
$ORTHOMODE
 70
     0
  9
$OSMODE
 70
     0
  9
$QTEXTMODE
 70
     0
  9
$REGENMODE
 70
     1
  9
$SKETCHINC
 40
0.1
  9
$SNAPANG
 50
0
  9
$SNAPBASE
 10
0
 20
0
  9
$SNAPISOPAIR
 70
     0
  9
$SNAPMODE
 70
     0
  9
$SNAPSTYLE
 70
     0
  9
$SNAPUNIT
 10
0.5
 20
0.5
  9
$TEXTSIZE
 40
0.25
  9
$TEXTSTYLE
  8
STANDARD
  9
$THICKNESS
 40
0
  9
$TRACEWID
 40
0.05
  9
$EXTMAX
 10
48
 20
35.9785330948122
  9
$EXTMIN
 10
0
 20
0
  9
$LIMMAX
 10
48
 20
35.9785330948122
  9
$LIMMIN
 10
0
 20
0
  9
$VIEWCTR
 10
30.0249999999999
 20
14.975
  9
$VIEWDIR
 10
0
 20
0
 30
1
  9
$VIEWSIZE
 40
47.216427906977
  0
ENDSEC
  0
SECTION
  2
TABLES
  0
TABLE
  2
LTYPE
 70
     9
  0
LTYPE
  2
CONTINUOUS
 70
    64
  3
Solid line
 72
    65
 73
     0
 40
0
  0
LTYPE
  2
HIDDEN
 70
    64
  3
_ _ _ _ _ _ _ _ _ _ _ _ _ _ _ _ _ _ _ _ 
 72
    65
 73
     2
 40
0.375
 49
0.25
 49
-0.125
  0
LTYPE
  2
DASHED
 70
    64
  3
__ __ __ __ __ __ __ __ __ __ __ __ __  
 72
    65
 73
     2
 40
0.75
 49
0.5
 49
-0.25
  0
LTYPE
  2
CENTER
 70
    64
  3
____ _ ____ _ ____ _ ____ _ ____ _ ____ 
 72
    65
 73
     4
 40
2
 49
1.25
 49
-0.25
 49
0.25
 49
-0.25
  0
LTYPE
  2
PHANTOM
 70
    64
  3
_____ _ _ _____ _ _ _____ _ _ _____ _ _ 
 72
    65
 73
     6
 40
2.5
 49
1.25
 49
-0.25
 49
0.25
 49
-0.25
 49
0.25
 49
-0.25
  0
LTYPE
  2
DOT
 70
    64
  3
........................................
 72
    65
 73
     2
 40
0.25
 49
0
 49
-0.25
  0
LTYPE
  2
DASHDOT
 70
    64
  3
__ . __ . __ . __ . __ . __ . __ . __ . 
 72
    65
 73
     4
 40
1
 49
0.5
 49
-0.25
 49
0
 49
-0.25
  0
LTYPE
  2
BORDER
 70
    64
  3
__ __ . __ __ . __ __ . __ __ . __ __ . 
 72
    65
 73
     6
 40
1.75
 49
0.5
 49
-0.25
 49
0.5
 49
-0.25
 49
0
 49
-0.25
  0
LTYPE
  2
DIVIDE
 70
    64
  3
__ . . __ . . __ . . __ . . __ . . __ . 
 72
    65
 73
     6
 40
1.25
 49
0.5
 49
-0.25
 49
0
 49
-0.25
 49
0
 49
-0.25
  0
ENDTAB
  0
TABLE
  2
LAYER
 70
     6
  0
LAYER
  2
0
 70
     0
 62
     7
  6
CONTINUOUS
  0
LAYER
  2
0090010010
 70
    64
 62
    10
  6
CONTINUOUS
  0
LAYER
  2
0010010010
 70
    64
 62
    10
  6
CONTINUOUS
  0
LAYER
  2
0010010008
 70
    64
 62
     8
  6
CONTINUOUS
  0
LAYER
  2
0010010003
 70
    64
 62
     3
  6
CONTINUOUS
  0
LAYER
  2
0030010003
 70
    64
 62
     3
  6
CONTINUOUS
  0
ENDTAB
  0
TABLE
  2
STYLE
 70
1
  0
STYLE
  2
STANDARD
 70
     0
 40
0
 41
1
 50
0
 71
     0
 42
0.2
  3
txt
  4

  0
ENDTAB
  0
TABLE
  2
VIEW
 70
     0
  0
ENDTAB
  0
ENDSEC
  0
SECTION
  2
BLOCKS
  0
ENDSEC
  0
SECTION
  2
ENTITIES
  0
ARC
  8
0090010010
 10
30
 20
-120.375
 40
150.375
 50
84.2751895477765
 51
95.7248104522235
  0
ARC
  8
0090010010
 10
0
 20
178.875
 40
150.375
 50
272.858830945856
 51
275.724810452223
  0
LINE
  8
0010010010
 10
7.5
 20
28.687148876815
 11
7.49999999999969
 21
0
  0
ARC
  8
0010010008
 10
48.4827537790998
 20
11.3655819942828
 40
6.68720117900621
 50
353.436670902112
 51
359.758557444237
  0
ARC
  8
0010010008
 10
57.1315721446442
 20
9.67480025490606
 40
2.20908832893592
 50
155.205171879736
 51
171.300799601101
  0
ARC
  8
0010010008
 10
54.9177159981868
 20
10.4016830600017
 40
0.393922664458954
 50
274.394137260672
 51
299.662317002369
  0
ARC
  8
0010010008
 10
55.1531432556503
 20
9.99834228953358
 40
0.0732418327463815
 50
58.2130871063872
 51
123.55167703925
  0
ARC
  8
0010010008
 10
129.033722371317
 20
15.2069147713027
 40
74.0211135784105
 50
183.986703738717
 51
186.533778519679
  0
ARC
  8
0010010008
 10
56.6073547441549
 20
6.39108132070432
 40
1.18128186916768
 50
160.565405302721
 51
179.459248780707
  0
ARC
  8
0010010008
 10
55.4065042139828
 20
6.1459265215069
 40
0.257053395623216
 50
31.0879611471523
 51
85.6222690380871
  0
ARC
  8
0010010008
 10
74.9557290388213
 20
10.8574050716592
 40
19.8640045536076
 50
193.326792529392
 51
195.096720485561
  0
ARC
  8
0010010008
 10
64.2933353077975
 20
7.72715438667612
 40
8.75775821626188
 50
193.492304918033
 51
212.158005580366
  0
ARC
  8
0010010008
 10
56.9170121013228
 20
3.09012819503684
 40
0.0450023698005663
 50
212.746006141835
 51
31.5700050188973
  0
ARC
  8
0010010010
 10
64.2933353077975
 20
7.72715438667612
 40
8.66775821626188
 50
193.483986852463
 51
212.158005580366
  0
ARC
  8
0010010010
 10
74.9557290388213
 20
10.8574050716592
 40
19.7740045536076
 50
193.289207653369
 51
195.100377203746
  0
ARC
  8
0010010010
 10
55.4065042139828
 20
6.1459265215069
 40
0.347053395623218
 50
28.5938356568013
 51
71.0443375386088
  0
ARC
  8
0010010010
 10
56.6073547441549
 20
6.39108132070432
 40
1.09128186916767
 50
159.495927510325
 51
175.63391724533
  0
ARC
  8
0010010010
 10
129.033722371317
 20
15.2069147713027
 40
73.9311135784105
 50
183.959211779808
 51
186.550192702851
  0
ARC
  8
0010010008
 10
55.1531432556503
 20
9.99834228953358
 40
0.163241832746384
 50
39.5309141537337
 51
123.551677039251
  0
ARC
  8
0010010010
 10
57.1315721446442
 20
9.67480025490606
 40
2.11908832893591
 50
154.82001023019
 51
167.474212291036
  0
ARC
  8
0010010010
 10
48.4827537790998
 20
11.3655819942828
 40
6.77720117900621
 50
353.312883630192
 51
1.6032270804933
  0
ARC
  8
0010010008
 10
49.0576686280303
 20
9.42813564419701
 40
6.55437496814099
 50
12.1984182212888
 51
18.9367992016824
  0
ARC
  8
0010010010
 10
74.9090280224476
 20
11.3482782032311
 40
19.4523353490715
 50
181.576652459723
 51
186.522439113331
  0
ARC
  8
0010010010
 10
58.4550254343236
 20
8.76696731725401
 40
2.89637289515172
 50
138.259763878734
 51
172.627231607613
  0
ARC
  8
0010010010
 10
56.0975068776661
 20
10.790885778066
 40
0.21838792657955
 50
334.026224160386
 51
29.6947397032782
  0
ARC
  8
0010010010
 10
56.0179930102629
 20
11.1647623705662
 40
0.378249735070605
 50
213.776805758383
 51
315.378166375827
  0
LINE
  8
0010010008
 10
55.7035881998496
 20
10.9544709602091
 11
55.7919794709459
 21
11.0543029680416
  0
ARC
  8
0010010010
 10
55.9581705331138
 20
11.3829870918279
 40
0.368310632990276
 50
175.374485818711
 51
243.177677248636
  0
LINE
  8
0010010008
 10
55.5910594633522
 20
11.4126886882865
 11
55.6757136760254
 21
11.4501567296944
  0
ARC
  8
0010010010
 10
56.1619328342573
 20
11.6391004828033
 40
0.521640500412575
 50
159.904725869436
 51
201.236022811305
  0
ARC
  8
0010010008
 10
55.9414723114368
 20
12.3394636017606
 40
0.586662326526607
 50
242.661367764921
 51
293.464936190343
  0
ARC
  8
0010010010
 10
55.8455797596835
 20
11.4712320127614
 40
0.46639243896954
 50
1.2620309850023
 51
45.0512182567314
  0
LINE
  8
0010010008
 10
56.3823914141901
 20
11.5049988497603
 11
56.3118590632008
 21
11.4815042198926
  0
ARC
  8
0010010010
 10
55.5034743568521
 20
11.189368677719
 40
0.933872367715502
 50
344.377440599339
 51
19.7538517476634
  0
ARC
  8
0010010010
 10
56.7707009822645
 20
10.8651743561025
 40
0.374970455114395
 50
168.820053650919
 51
192.272937366318
  0
ARC
  8
0010010010
 10
56.2591700887105
 20
11.0991896590283
 40
0.345665190750312
 50
294.825565254839
 51
2.63841279480403
  0
ARC
  8
0010010010
 10
57.4478746621809
 20
11.1829434595163
 40
0.846129945460332
 50
134.383944626096
 51
184.598857417117
  0
LINE
  8
0010010008
 10
56.8560379840333
 20
11.7876460566696
 11
56.9279286181781
 21
11.7092253409912
  0
ARC
  8
0010010010
 10
57.3902921346549
 20
11.3810160332038
 40
0.567010909142847
 50
81.6236150032481
 51
144.630915914117
  0
LINE
  8
0010010008
 10
57.4728916065396
 20
11.9419783299149
 11
57.5202568594183
 21
11.795721872735
  0
ARC
  8
0010010010
 10
57.6651659894963
 20
11.4142474034393
 40
0.40807036979472
 50
30.5868232875735
 51
110.80007518961
  0
ARC
  8
0010010008
 10
58.2919604435384
 20
11.3775234627444
 40
0.368263177678713
 50
138.427395298383
 51
170.090263565962
  0
ARC
  8
0010010010
 10
57.7919851209845
 20
11.4484504779231
 40
0.137414175971424
 50
281.100335623133
 51
356.850301727692
  0
LINE
  8
0010010008
 10
57.8873535088951
 20
11.2484269859194
 11
57.8184411582474
 21
11.3136071100838
  0
ARC
  8
0010010010
 10
57.5444463328363
 20
11.3313187501046
 40
0.352783752406931
 50
257.910996393083
 51
346.410452075971
  0
LINE
  8
0010010008
 10
57.4868535603404
 20
10.8570384485018
 11
57.4705625141727
 21
10.9863585244235
  0
ARC
  8
0010010010
 10
57.0360792744667
 20
11.6034771645472
 40
0.871990948127602
 50
251.288523663949
 51
301.127774864279
  0
ARC
  8
0010010010
 10
56.7137533790866
 20
10.5696691866302
 40
0.21222248465238
 50
78.4232659749592
 51
133.006479163251
  0
ARC
  8
0010010010
 10
56.8426949822783
 20
11.2069882943857
 40
0.554395134696982
 50
240.417165192258
 51
281.033612259555
  0
ARC
  8
0010010008
 10
57.0506620674461
 20
10.229974382984
 40
0.444690828543548
 50
48.4520388966829
 51
103.242184532875
  0
LINE
  8
0010010008
 10
57.3456018147763
 20
10.5627813517144
 11
57.3201991389993
 21
10.4662248314609
  0
ARC
  8
0010010010
 10
57.2702473309362
 20
10.0581083773578
 40
0.411162040123447
 50
17.469017782454
 51
83.0219351388337
  0
LINE
  8
0010010008
 10
57.539244514424
 20
10.0762019500292
 11
57.6624463374338
 21
10.1815351270546
  0
ARC
  8
0010010010
 10
57.0309310139476
 20
9.74171819984703
 40
0.608491572581328
 50
339.042910059197
 51
33.3459756981247
  0
ARC
  8
0010010010
 10
57.3018056774051
 20
8.83159512307099
 40
0.753631608111142
 50
66.7605195249382
 51
92.2452082372214
  0
ARC
  8
0010010010
 10
57.3351953050206
 20
9.92807450504872
 40
0.349141551193557
 50
215.819419643558
 51
259.618794267471
  0
LINE
  8
0010010008
 10
56.9779918819991
 20
9.56213097144863
 11
57.052088463479
 21
9.72374550798229
  0
ARC
  8
0010010010
 10
57.0244395731768
 20
9.90805937629925
 40
0.349032733849199
 50
185.792058612143
 51
262.352652315334
  0
LINE
  8
0010010008
 10
56.5587950667757
 20
9.79807418574689
 11
56.6771887540442
 21
9.87283555041445
  0
ARC
  8
0010010010
 10
57.1634537808884
 20
10.0310578996574
 40
0.647991953267909
 50
145.696408586313
 51
201.072392672132
  0
ARC
  8
0010010010
 10
56.4989357118712
 20
10.4206855349787
 40
0.131525390501612
 50
349.293854097097
 51
70.3990845570332
  0
ARC
  8
0010010010
 10
56.4695561326834
 20
10.3807439696659
 40
0.179576812186524
 50
65.8387219583111
 51
88.8503378213251
  0
ARC
  8
0010010008
 10
56.510527208868
 20
10.3030205711555
 40
0.259963781308553
 50
98.2645104282613
 51
143.45638002376
  0
ARC
  8
0010010010
 10
57.9065931805574
 20
9.05779346104221
 40
2.12974789107569
 50
138.900892615401
 51
170.28850698646
  0
ARC
  8
0010010010
 10
63.7455905136239
 20
8.33917231371142
 40
8.01107041302413
 50
172.26745390344
 51
177.307080883768
  0
ARC
  8
0010010008
 10
52.3386366560719
 20
8.6387120787925
 40
3.40559723203557
 50
355.698645948064
 51
1.29293982027493
  0
ARC
  8
0010010008
 10
52.3386366560719
 20
8.6387120787925
 40
3.40559723203557
 50
345.408381559215
 51
355.698645948064
  0
LINE
  8
0010010008
 10
55.6343898717854
 20
7.78074748280842
 11
55.748929767842
 21
7.77803224886853
  0
ARC
  8
0010010008
 10
55.749530811484
 20
7.7019829665961
 40
0.0760516573626888
 50
39.9454753051953
 51
90.4528188297262
  0
ARC
  8
0010010008
 10
48.1633752803942
 20
6.79724508712268
 40
7.70370524716057
 50
359.850756968254
 51
7.11032909784372
  0
ARC
  8
0010010008
 10
55.9120665071674
 20
6.78177069216721
 40
0.0452457445198793
 50
185.825062705916
 51
353.87645123059
  0
ARC
  8
0010010008
 10
48.1633752803942
 20
6.79724508712268
 40
7.79370524716057
 50
359.850756968254
 51
7.26606748774744
  0
ARC
  8
0010010008
 10
56.49593554432
 20
4.7824766317695
 40
0.313487833353623
 50
54.3314095729743
 51
84.202561496365
  0
ARC
  8
0010010008
 10
61.5236460936569
 20
6.37513410940854
 40
5.15760031561565
 50
194.378553650492
 51
214.440766504473
  0
ARC
  8
0010010008
 10
57.2284538232052
 20
3.43941646300603
 40
0.0457131874026129
 50
224.574861326832
 51
24.3066716821156
  0
ARC
  8
0010010010
 10
61.5236460936569
 20
6.37513410940854
 40
5.24760031561565
 50
193.282770898988
 51
214.440766504473
  0
ARC
  8
0010010010
 10
56.498530355633
 20
5.00777229667831
 40
0.181338623167526
 50
59.7955587572888
 51
116.920167259636
  0
ARC
  8
0010010010
 10
55.8149648664927
 20
5.10920942589025
 40
0.77676429250901
 50
4.08118259551418
 51
45.0263165909583
  0
ARC
  8
0010010010
 10
67.7082311513737
 20
7.81817962246665
 40
11.547969059558
 50
174.698421390327
 51
190.777721076919
  0
ARC
  8
0010010010
 10
56.3134334155794
 20
8.84763149516204
 40
0.110358369912295
 50
41.1595795379349
 51
160.103374106757
  0
ARC
  8
0010010010
 10
55.8149013209908
 20
8.96383664407103
 40
0.583248443716386
 50
355.715700329634
 51
40.4456506757429
  0
ARC
  8
0010010010
 10
60.2244769424497
 20
9.91448037175687
 40
4.00678945954909
 50
175.649744518112
 51
188.21142695157
  0
ARC
  8
0010010008
 10
57.9065931805574
 20
9.05779346104221
 40
2.03974789107569
 50
145.319519764326
 51
155.433801736196
  0
ARC
  8
0010010010
 10
68.4920966293061
 20
8.61534278739592
 40
12.5073672998891
 50
174.077892693359
 51
179.871549565168
  0
LINE
  8
0010010008
 10
55.9847607606645
 20
8.6433828181999
 11
55.9708424568823
 21
8.6433828181999
  0
ARC
  8
0010010010
 10
41.8108591453485
 20
7.75362721308003
 40
14.1879100793514
 50
3.59550598835801
 51
6.77609849818771
  0
ARC
  8
0010010008
 10
63.7455905136239
 20
8.33917231371142
 40
7.92107041302413
 50
172.101645362462
 51
177.284639680064
  0
ARC
  8
0010010008
 10
63.7455905136239
 20
8.33917231371142
 40
7.92107041302413
 50
177.284639680064
 51
179.706946088274
  0
ARC
  8
0010010010
 10
52.3386366560719
 20
8.6387120787925
 40
3.49559723203557
 50
347.263220360421
 51
355.750457432572
  0
ARC
  8
0010010010
 10
55.749530811484
 20
7.7019829665961
 40
0.166051657362689
 50
29.1912504862326
 51
90.4528188297255
  0
ARC
  8
0010010010
 10
55.9414723114368
 20
12.3394636017606
 40
0.496662326526608
 50
222.351490911017
 51
305.310147125132
  0
LINE
  8
0010010008
 10
56.2285442059274
 20
11.9341696417952
 11
56.1459065613446
 21
12.0813948024995
  0
ARC
  8
0010010010
 10
55.8325467154881
 20
12.7974996252135
 40
0.781665216131148
 50
293.633674641293
 51
11.6557041846323
  0
ARC
  8
0010010010
 10
56.5041880540366
 20
13.4261977863779
 40
0.480052419426319
 50
252.834341493982
 51
281.280644534262
  0
ARC
  8
0010010010
 10
56.3059859544562
 20
12.8488716701513
 40
0.131431649332767
 50
64.5295362821923
 51
126.584376609768
  0
LINE
  8
0010010008
 10
56.1739632441761
 20
13.0611635443846
 11
56.2276519106376
 21
12.9544086590479
  0
ARC
  8
0010010010
 10
56.4372231656207
 20
12.4840123668673
 40
0.634357366118369
 50
114.519476760784
 51
162.512314312251
  0
LINE
  8
0010010008
 10
55.724088813839
 20
12.7618849314802
 11
55.8321848086339
 21
12.6746372721744
  0
ARC
  8
0010010010
 10
56.0735141977586
 20
12.3399401584256
 40
0.547846228822877
 50
129.629196104449
 51
183.550139140693
  0
LINE
  8
0010010008
 10
55.8701383030319
 20
12.9975519961859
 11
55.8307841283739
 21
13.0457329397101
  0
ARC
  8
0010010010
 10
55.4780671143999
 20
13.5793343807226
 40
0.639640359731513
 50
303.465186359064
 51
352.180376543225
  0
LINE
  8
0010010008
 10
56.1117596507047
 20
13.4923081822016
 11
56.0126703271704
 21
13.5234358152045
  0
ARC
  8
0010010010
 10
55.3848777186261
 20
13.7216183206121
 40
0.658331120935711
 50
342.480057826936
 51
35.63541021077
  0
ARC
  8
0010010010
 10
55.6562804855821
 20
14.4296856075789
 40
0.418109958089209
 50
269.784232380467
 51
309.092581410508
  0
ARC
  8
0010010008
 10
55.6933714505621
 20
13.81174242887
 40
0.20354243315566
 50
100.950616805405
 51
158.91463683872
  0
LINE
  8
0010010008
 10
55.435141887193
 20
13.9301966016637
 11
55.5034571054478
 21
13.8849685417991
  0
ARC
  8
0010010008
 10
55.9214251894197
 20
13.5691434283883
 40
0.605665620583428
 50
143.407038603748
 51
192.241511486817
  0
LINE
  8
0010010008
 10
55.2351505335665
 20
13.4655835580431
 11
55.3295308724774
 21
13.440722396123
  0
ARC
  8
0010010008
 10
55.7583030123725
 20
13.2153408662143
 40
0.57992234039958
 50
154.436529131017
 51
197.300868349033
  0
ARC
  8
0010010010
 10
55.0385023651636
 20
13.0133621734611
 40
0.168718005961447
 50
301.538655789214
 51
10.0753184077768
  0
ARC
  8
0010010010
 10
55.596454758282
 20
13.1119198751554
 40
0.528539438695116
 50
162.846149510059
 51
207.292627509079
  0
ARC
  8
0010010010
 10
54.5199899904959
 20
13.5607115649696
 40
0.642131866380529
 50
332.861389023532
 51
23.8190844753907
  0
LINE
  8
0010010008
 10
55.1074284045033
 20
13.8200365417263
 11
55.0062760741199
 21
13.7836514517845
  0
ARC
  8
0010010010
 10
54.093688001308
 20
13.8187394171169
 40
0.913262369721712
 50
357.798127546313
 51
47.8049840468191
  0
LINE
  8
0010010008
 10
54.7070862845238
 20
14.4953417390888
 11
54.5780807377662
 21
14.4032499936548
  0
ARC
  8
0010010010
 10
54.1224072827454
 20
14.080951965174
 40
0.558134676196707
 50
35.2717856633874
 51
89.3321494595694
  0
ARC
  8
0010010008
 10
54.0968487326522
 20
14.8994243027269
 40
0.262342427555723
 50
235.729620727772
 51
277.02038232327
  0
ARC
  8
0010010010
 10
54.4475858767965
 20
14.4387071551617
 40
0.554942577942633
 50
153.925389662799
 51
225.533725138765
  0
LINE
  8
0010010008
 10
53.9296243207374
 20
13.9802114883694
 11
54.0588545315107
 21
14.0426652306059
  0
ARC
  8
0010010010
 10
54.6434333675499
 20
14.0734848525912
 40
0.7198772643893
 50
187.444654038927
 51
238.593626328112
  0
LINE
  8
0010010008
 10
54.1863777919133
 20
13.3758071399983
 11
54.2683020288027
 21
13.459074766025
  0
ARC
  8
0010010008
 10
54.8602123867407
 20
13.747262848757
 40
0.769436420216558
 50
208.866037247087
 51
221.522664147844
  0
LINE
  8
0010010008
 10
54.2697029600994
 20
13.1078409079286
 11
54.2841402990481
 21
13.237190937614
  0
ARC
  8
0010010008
 10
54.111680380243
 20
12.7656999300361
 40
0.376870779575374
 50
65.2094876904938
 51
132.951223939193
  0
LINE
  8
0010010008
 10
53.8548898607888
 20
13.0415444761417
 11
53.858221894413
 21
12.9470137198139
  0
ARC
  8
0010010010
 10
53.8346575564241
 20
12.7502062519444
 40
0.19821316160654
 50
83.1723109041248
 51
163.917325792304
  0
ARC
  8
0010010010
 10
53.4417636553613
 20
12.9496260716025
 40
0.248725489927951
 50
273.686806539794
 51
324.47895447051
  0
ARC
  8
0010010010
 10
53.8796547955707
 20
12.7380816924176
 40
0.423487772106633
 50
184.966994484406
 51
277.460935073226
  0
LINE
  8
0010010008
 10
53.9313348837364
 20
12.1791846586211
 11
53.9346447604177
 21
12.3181793265157
  0
ARC
  8
0010010010
 10
54.095289854242
 20
12.5145002731671
 40
0.373252988885415
 50
243.94334771824
 51
322.068506095077
  0
LINE
  8
0010010008
 10
54.4412954216984
 20
12.171758753275
 11
54.3896917719459
 21
12.2850546269583
  0
ARC
  8
0010010010
 10
54.3017097955817
 20
12.7936103773512
 40
0.637325340296922
 50
282.651353189804
 51
336.195916576354
  0
ARC
  8
0010010010
 10
54.9763894992465
 20
12.3921097445328
 40
0.170876933923284
 50
39.9622623871412
 51
122.404214925838
  0
ARC
  8
0010010010
 10
63.8662558752704
 20
14.804263125396
 40
9.0564503063014
 50
194.727837478214
 51
198.588224308494
  0
ARC
  8
0010010010
 10
54.3001017711492
 20
12.3952015232417
 40
0.777318094663163
 50
22.0153692713463
 51
48.7114525092961
  0
ARC
  8
0010010008
 10
54.8602123867407
 20
13.747262848757
 40
0.769436420216558
 50
256.460949888878
 51
266.483352500756
  0
ARC
  8
0010010010
 10
54.2700595522835
 20
12.7146365428595
 40
0.499098153374271
 50
15.4896168706229
 51
34.7622595763842
  0
ARC
  8
0010010010
 10
54.9664988550825
 20
12.902013044777
 40
0.222153352598679
 50
194.09084963931
 51
284.132358723813
  0
ARC
  8
0010010008
 10
55.1910014804737
 20
12.1952104107466
 40
0.292421887786844
 50
226.337972258642
 51
288.18140021897
  0
ARC
  8
0010010008
 10
54.6656375187038
 20
11.7337179453599
 40
0.408790490290356
 50
37.6930497246964
 51
94.0683475174528
  0
LINE
  8
0010010008
 10
54.6366353021089
 20
12.1414783362568
 11
54.6174963969095
 21
12.0241571484248
  0
ARC
  8
0010010010
 10
54.3744412902463
 20
11.6357761531403
 40
0.458165453055151
 50
57.9610017637464
 51
119.174758373119
  0
LINE
  8
0010010008
 10
54.1510970647476
 20
12.0358173251584
 11
54.1733266350859
 21
11.9097805082477
  0
ARC
  8
0010010010
 10
54.19030743626
 20
11.6592826079609
 40
0.25107278955833
 50
93.8780447056937
 51
164.124353805177
  0
ARC
  8
0010010010
 10
53.8524683605436
 20
11.7600031909559
 40
0.101530603966327
 50
251.506237105475
 51
341.605065111095
  0
ARC
  8
0010010010
 10
54.345173660819
 20
11.8563337059108
 40
0.559136084661317
 50
200.150787205233
 51
267.062249037421
  0
LINE
  8
0010010008
 10
54.2713778874663
 20
11.1411621200295
 11
54.3165173975557
 21
11.2979324346495
  0
ARC
  8
0010010010
 10
54.5155612221051
 20
11.5610920229726
 40
0.485763959450605
 50
239.822600861936
 51
313.305864007834
  0
LINE
  8
0010010008
 10
54.9225386702242
 20
11.1290765758441
 11
54.8487432409775
 21
11.2076003447096
  0
ARC
  8
0010010008
 10
54.4741036222396
 20
11.60925997799
 40
0.657016051521858
 50
313.041888516573
 51
3.39006259562848
  0
ARC
  8
0010010010
 10
55.2248247699171
 20
11.6331947925711
 40
0.0960205286286939
 50
28.6428747456673
 51
171.062975286468
  0
ARC
  8
0010010010
 10
49.0576686280303
 20
9.42813564419701
 40
6.64437496814099
 50
3.9516070379442
 51
19.803525900904
  0
ARC
  8
0010010008
 10
58.4550254343236
 20
8.76696731725401
 40
2.98637289515172
 50
152.82842802805
 51
157.992900748192
  0
ARC
  8
0010010010
 10
41.8108591453485
 20
7.75362721308003
 40
14.1879100793514
 50
9.64500230299302
 51
15.9118507257331
  0
ARC
  8
0010010008
 10
55.7224609731498
 20
11.7556007440708
 40
0.289916103017722
 50
120.704690216697
 51
202.777614650688
  0
ARC
  8
0010010010
 10
59.8877706197175
 20
11.0234772489201
 40
3.33587688606841
 50
160.727993471026
 51
170.483330895731
  0
ARC
  8
0010010008
 10
57.4478746621809
 20
11.1829434595163
 40
0.936129945460332
 50
155.239921135022
 51
172.245881258555
  0
ARC
  8
0010010008
 10
55.5034743568521
 20
11.189368677719
 40
1.0238723677155
 50
6.72386318987189
 51
21.2407011658306
  0
ARC
  8
0010010010
 10
150.208310222178
 20
-15.7116958607018
 40
97.6366821922413
 50
162.748333728941
 51
163.780301124164
  0
ARC
  8
0010010010
 10
56.7915476373218
 20
13.1149142736141
 40
0.215762937648093
 50
36.8630421870839
 51
118.979771696752
  0
ARC
  8
0010010010
 10
56.4992968238901
 20
13.5570215433816
 40
0.315321363185878
 50
239.764972940341
 51
306.534629454737
  0
LINE
  8
0010010008
 10
56.3405173139243
 20
13.2845942516203
 11
56.4090921514363
 21
13.412142744359
  0
ARC
  8
0010010010
 10
56.6010483262938
 20
13.9052124510132
 40
0.529117102998896
 50
202.584398324179
 51
248.72861918486
  0
LINE
  8
0010010008
 10
56.1125066600152
 20
13.7020082458509
 11
56.188144140511
 21
13.8013844258985
  0
ARC
  8
0010010010
 10
56.7363294014248
 20
14.2721211306551
 40
0.722564962815293
 50
161.575724578411
 51
220.653289342977
  0
ARC
  8
0010010010
 10
56.2495703664116
 20
14.758134521338
 40
0.325408209150671
 50
232.350517534806
 51
282.216636473962
  0
ARC
  8
0010010008
 10
56.3185409075687
 20
14.1932388792452
 40
0.246856492087471
 50
53.4685512296938
 51
90.0258487908641
  0
LINE
  8
0010010008
 10
56.5235436001972
 20
14.4624233400204
 11
56.4654856711626
 21
14.3915955381656
  0
ARC
  8
0010010010
 10
56.1733654841106
 20
13.9269976241582
 40
0.639769810316576
 50
12.8694666409407
 51
56.8145870246141
  0
LINE
  8
0010010008
 10
56.9040892798288
 20
14.1396005818642
 11
56.7970642943653
 21
14.0694939549157
  0
ARC
  8
0010010008
 10
55.9357183376355
 20
13.7009411329134
 40
1.06309190281838
 50
351.90892556491
 51
24.3699084035226
  0
ARC
  8
0010010010
 10
57.094452461332
 20
13.5398468385899
 40
0.106841840557145
 50
173.838597367103
 51
248.846883255755
  0
ARC
  8
0010010010
 10
66.3579676378457
 20
10.4958841361249
 40
9.75692223619658
 50
158.299541667267
 51
162.436218700026
  0
ARC
  8
0010010010
 10
56.9784771951499
 20
14.0859650580282
 40
0.314536835797199
 50
3.20438499404645
 51
59.9208905047942
  0
ARC
  8
0010010010
 10
56.9569721369069
 20
14.6068824936754
 40
0.306537249862645
 50
206.165757160143
 51
305.762701304794
  0
LINE
  8
0010010008
 10
56.6818481881859
 20
14.4717089075222
 11
56.759218245777
 21
14.5558288438123
  0
ARC
  8
0010010010
 10
57.0776528444961
 20
15.0208701067742
 40
0.563616864473191
 50
179.049865763526
 51
235.59880888959
  0
LINE
  8
0010010008
 10
56.5141134741341
 20
15.0302161203942
 11
56.639048018134
 21
15.0782077755719
  0
ARC
  8
0010010010
 10
57.2589852839475
 20
15.4155550836572
 40
0.705780008088008
 50
157.207126548036
 51
208.553424279663
  0
ARC
  8
0010010010
 10
56.9401744772616
 20
16.1518773051049
 40
0.569567286399088
 50
234.363174392947
 51
258.415541991911
  0
ARC
  8
0010010010
 10
56.7854341118031
 20
15.4228545084475
 40
0.175755585128294
 50
14.0551606154351
 51
76.7228506295127
  0
LINE
  8
0010010008
 10
57.0368231070726
 20
15.5386806438334
 11
56.955927991276
 21
15.4655377928347
  0
ARC
  8
0010010010
 10
56.7665045091052
 20
15.1744637985282
 40
0.45357034163528
 50
3.15808881201156
 51
53.4175143450644
  0
LINE
  8
0010010008
 10
57.3162242649242
 20
15.2555559159493
 11
57.2193860269933
 21
15.1994515068362
  0
ARC
  8
0010010010
 10
56.5439602235959
 20
14.8458089346542
 40
0.874233571884094
 50
336.837376692198
 51
27.9494768119153
  0
ARC
  8
0010010010
 10
57.549524996321
 20
14.4690604863595
 40
0.204461643282654
 50
170.747224562096
 51
231.318008223833
  0
ARC
  8
0010010008
 10
57.0314592556152
 20
14.6261434809283
 40
0.502603299710451
 50
320.942365521674
 51
12.1201341536657
  0
ARC
  8
0010010008
 10
58.5324075727651
 20
15.1075264414188
 40
1.07724414466986
 50
161.655407267714
 51
200.420321885252
  0
LINE
  8
0010010008
 10
57.509908099806
 20
15.4465688798005
 11
57.593174991215
 21
15.4026064572307
  0
ARC
  8
0010010010
 10
58.1480857643065
 20
15.2865907151036
 40
0.566908827338499
 50
112.189070943754
 51
168.191210775298
  0
LINE
  8
0010010008
 10
57.9339846114478
 20
15.8115157715249
 11
58.0302385637169
 21
15.7123442105472
  0
ARC
  8
0010010010
 10
58.4830488327705
 20
15.1801826608832
 40
0.698736756369072
 50
72.6871252529622
 51
130.394085816504
  0
ARC
  8
0010010010
 10
58.911158929172
 20
15.6211551205751
 40
0.315596027774736
 50
134.23822621436
 51
197.878489363249
  0
ARC
  8
0010010010
 10
58.3347709877403
 20
15.4785354515189
 40
0.279794825090438
 50
320.655528688519
 51
9.40708603241887
  0
LINE
  8
0010010008
 10
58.5511498582414
 20
15.3011507606687
 11
58.6647896351352
 21
15.287013520368
  0
ARC
  8
0010010010
 10
58.2257451428124
 20
15.2301171856661
 40
0.442715776928647
 50
292.364734656074
 51
7.38388179165725
  0
LINE
  8
0010010008
 10
58.3941990490997
 20
14.8207023097784
 11
58.4489398416744
 21
14.7177790696027
  0
ARC
  8
0010010010
 10
57.7697317080815
 20
15.6611415256361
 40
1.16243555184456
 50
301.041516072778
 51
305.753373863607
  0
LINE
  8
0010010008
 10
58.3810297802056
 20
14.5861873139593
 11
58.3691521045734
 21
14.6651738552464
  0
ARC
  8
0010010008
 10
58.4438817135515
 20
14.3077829081336
 40
0.28541089451602
 50
51.4331297218894
 51
102.721696934793
  0
LINE
  8
0010010008
 10
58.6218147424025
 20
14.5309402874701
 11
58.6225586097485
 21
14.4342339474172
  0
ARC
  8
0010010010
 10
58.6722196603417
 20
14.2223251749761
 40
0.217650058083011
 50
14.6536592690028
 51
103.189311787998
  0
ARC
  8
0010010010
 10
59.0028058002982
 20
14.3406177577774
 40
0.135654338136544
 50
207.783323738414
 51
276.601011009978
  0
ARC
  8
0010010010
 10
58.5642573950572
 20
14.4084350083871
 40
0.497273519112585
 50
275.749094803689
 51
335.960524922306
  0
LINE
  8
0010010008
 10
58.6594632350352
 20
13.8116125469014
 11
58.6140704482972
 21
13.9136627248692
  0
ARC
  8
0010010010
 10
58.284192402074
 20
14.1258838711404
 40
0.489484078709752
 50
254.480818812914
 51
320.055441201055
  0
LINE
  8
0010010008
 10
58.1241674822432
 20
13.5353470965704
 11
58.1532255718956
 21
13.6542459245083
  0
ARC
  8
0010010008
 10
58.1938037672139
 20
13.086913951449
 40
0.453807776297347
 50
98.8268461693996
 51
105.019416329349
  0
LINE
  8
0010010008
 10
58.0636247661121
 20
13.5709002161566
 11
58.0762011328968
 21
13.5252187748649
  0
ARC
  8
0010010010
 10
58.0582478980914
 20
13.9256692619318
 40
0.609306681881855
 50
108.839569281838
 51
152.243184553867
  0
ARC
  8
0010010010
 10
57.7697317080815
 20
15.6611415256361
 40
1.16243555184456
 50
274.527470754049
 51
276.709718538683
  0
ARC
  8
0010010008
 10
58.3541904175438
 20
14.1095815188114
 40
0.599129258147353
 50
138.488366976431
 51
149.38010552124
  0
ARC
  8
0010010010
 10
57.5629318145788
 20
14.4924723624063
 40
0.286417998377533
 50
261.187621553584
 51
344.253166748236
  0
ARC
  8
0010010008
 10
57.8263339637038
 20
13.2095242958387
 40
0.432318725818311
 50
56.709837362881
 51
95.2636688039464
  0
ARC
  8
0010010010
 10
58.0960483092882
 20
13.9335958285268
 40
0.426496921539926
 50
165.868044686662
 51
223.499029028046
  0
ARC
  8
0010010010
 10
57.5808064494862
 20
13.8653022146338
 40
0.200159239837353
 50
59.4787519475985
 51
154.787142639945
  0
ARC
  8
0010010010
 10
59.023554628424
 20
12.9608593870497
 40
1.9016760544006
 50
148.638270453023
 51
168.13466389648
  0
ARC
  8
0010010010
 10
57.2979045113727
 20
13.7222827643124
 40
0.394384681036338
 50
249.921692265202
 51
317.596975334275
  0
ARC
  8
0010010008
 10
57.8263339637038
 20
13.2095242958387
 40
0.342318725818312
 50
62.1084220915755
 51
133.86367822897
  0
LINE
  8
0010010008
 10
57.9864706299722
 20
13.5120773625267
 11
58.0161203386712
 21
13.4043800083996
  0
ARC
  8
0010010008
 10
58.1938037672139
 20
13.086913951449
 40
0.363807776297348
 50
54.5195656271818
 51
119.235420133537
  0
LINE
  8
0010010008
 10
58.4049668644598
 20
13.3831676340522
 11
58.3966271271613
 21
13.2940280858072
  0
ARC
  8
0010010010
 10
58.3908095490754
 20
13.151078001106
 40
0.143068413463186
 50
3.14363086924709
 51
87.6695443229821
  0
ARC
  8
0010010010
 10
58.638580564204
 20
13.2117743701781
 40
0.117477449958151
 50
206.735907949814
 51
275.14682511949
  0
ARC
  8
0010010010
 10
58.1904950641818
 20
13.275950533673
 40
0.49311492887204
 50
274.421853339789
 51
338.443451863203
  0
LINE
  8
0010010008
 10
58.2314075825284
 20
12.6397601113106
 11
58.2285138855162
 21
12.7843034017777
  0
ARC
  8
0010010010
 10
58.0276441734102
 20
13.384884148834
 40
0.772482594102021
 50
251.129427546486
 51
285.294315202817
  0
LINE
  8
0010010008
 10
57.752131154335
 20
12.5429524395305
 11
57.7777990010348
 21
12.6539212578256
  0
ARC
  8
0010010008
 10
57.8614914304358
 20
13.0700290747463
 40
0.538302377274447
 50
188.521916152846
 51
258.27832587426
  0
ARC
  8
0010010010
 10
57.1454698450205
 20
12.9213402207131
 40
0.196167630006571
 50
20.5685248468491
 51
111.138498558445
  0
ARC
  8
0010010010
 10
58.7956184759365
 20
12.24260720033
 40
1.92457662469265
 50
153.401526961308
 51
171.848748844832
  0
ARC
  8
0010010010
 10
55.9612436249039
 20
12.2551593241268
 40
0.965018462203371
 50
350.090918839474
 51
15.6502305167587
  0
ARC
  8
0010010010
 10
56.8093131260474
 20
12.0284188065743
 40
0.119157706794108
 50
30.6105485679434
 51
126.265201476741
  0
LINE
  8
0010010008
 10
55.4771763163218
 20
14.0103043184504
 11
55.4181286813951
 21
14.0493967788941
  0
ARC
  8
0010010008
 10
55.9214251894197
 20
13.5691434283883
 40
0.695665620583432
 50
136.34211212095
 51
145.951185125065
  0
ARC
  8
0010010010
 10
51.811867024702
 20
13.9302958405892
 40
3.533270605425
 50
0.459732103635014
 51
14.2516484126323
  0
ARC
  8
0010010008
 10
54.9734824356315
 20
14.7214486770895
 40
0.274432828968773
 50
16.6587472131864
 51
85.2941776932174
  0
ARC
  8
0010010010
 10
55.0247704366564
 20
14.8277393144364
 40
0.169674617880697
 50
99.763458201903
 51
166.462858159228
  0
ARC
  8
0010010010
 10
54.55683757795
 20
14.968365824776
 40
0.319335042076161
 50
270.758459630005
 51
341.578817839474
  0
LINE
  8
0010010008
 10
54.5222171641625
 20
14.7615103805783
 11
54.5610646897245
 21
14.6490587615535
  0
ARC
  8
0010010010
 10
54.28858693825
 20
15.4118536805472
 40
0.691035086138394
 50
233.970262676822
 51
289.760388297458
  0
LINE
  8
0010010008
 10
53.8821166008954
 20
14.8530054407493
 11
53.9400313066302
 21
15.0063860713552
  0
ARC
  8
0010010010
 10
54.1410680591758
 20
15.5312208383153
 40
0.562020736702979
 50
172.726589461952
 51
249.040776588455
  0
ARC
  8
0010010010
 10
53.6378147888565
 20
15.8810235734987
 40
0.283879400864548
 50
258.983897785457
 51
297.477632956719
  0
ARC
  8
0010010008
 10
54.0108014987466
 20
15.1842548836227
 40
0.506472060183908
 50
74.480219362307
 51
118.543327850788
  0
LINE
  8
0010010008
 10
54.1463187552687
 20
15.6722600279927
 11
54.1698161150915
 21
15.7809865015037
  0
ARC
  8
0010010010
 10
54.2311162870691
 20
15.3688682969386
 40
0.416652283827237
 50
19.5124007830793
 51
98.4603811251592
  0
LINE
  8
0010010008
 10
54.7124415525004
 20
15.6803532907674
 11
54.6238399059537
 21
15.5080346893923
  0
ARC
  8
0010010010
 10
54.4629446682444
 20
15.1607606439341
 40
0.576389810715564
 50
7.97190114398677
 51
64.3507124680725
  0
ARC
  8
0010010010
 10
55.2170469155845
 20
15.2693907086282
 40
0.185514760939548
 50
188.897179449398
 51
270.199733847894
  0
ARC
  8
0010010010
 10
51.890116596859
 20
14.8619211656312
 40
3.33497125602916
 50
3.81608803581196
 51
19.7462947615054
  0
ARC
  8
0010010010
 10
54.8443409011484
 20
15.8268515964407
 40
0.245510538935259
 50
41.2291380996162
 51
95.9850457893244
  0
ARC
  8
0010010010
 10
54.862998889374
 20
15.893990027351
 40
0.182481999964072
 50
104.035827103531
 51
134.559441450461
  0
ARC
  8
0010010008
 10
54.3403757201855
 20
16.3902627460588
 40
0.538364538587843
 50
273.99634576699
 51
317.132805210375
  0
LINE
  8
0010010008
 10
54.3650049064036
 20
15.9563350251406
 11
54.3778958795232
 21
15.8532072423609
  0
ARC
  8
0010010008
 10
54.2057705730358
 20
16.4002820344167
 40
0.471640244220475
 50
243.310250709394
 51
289.731828610736
  0
LINE
  8
0010010008
 10
53.99392903732
 20
15.9788942276236
 11
54.0115775590766
 21
16.0942898938067
  0
ARC
  8
0010010010
 10
53.9945070821635
 20
16.5946626620816
 40
0.500663867692814
 50
189.125788848343
 51
271.953917481606
  0
ARC
  8
0010010010
 10
53.5706335773386
 20
16.7450898245961
 40
0.240389651153517
 50
252.957603234527
 51
318.298192146247
  0
ARC
  8
0010010010
 10
53.9407669342599
 20
16.298968533472
 40
0.343889743755334
 50
80.0669470661198
 51
123.669765902821
  0
LINE
  8
0010010008
 10
53.9966690440773
 20
16.7583750928791
 11
54.0000870085621
 21
16.6377033628664
  0
ARC
  8
0010010008
 10
54.0772202861805
 20
16.3708126625417
 40
0.395844843358363
 50
35.3724379323847
 51
101.741233912891
  0
LINE
  8
0010010008
 10
54.4400487856352
 20
16.6980263557567
 11
54.3999946905852
 21
16.5999628837386
  0
ARC
  8
0010010008
 10
54.2088440355248
 20
16.1481188120559
 40
0.596534947084068
 50
24.7088685742907
 51
67.1960240780286
  0
ARC
  8
0010010010
 10
55.0374259085803
 20
16.6159489445856
 40
0.360425958973364
 50
217.311988359935
 51
264.570744709369
  0
ARC
  8
0010010010
 10
54.5009969371904
 20
16.1999860901378
 40
0.505567656173549
 50
6.49109873991847
 51
50.501006187666
  0
ARC
  8
0010010010
 10
55.480644447773
 20
18.1933539248946
 40
1.73305617698176
 50
238.557861463941
 51
247.683742481033
  0
ARC
  8
0010010010
 10
54.7794479350605
 20
17.1738537076279
 40
0.501897144656058
 50
186.094239329069
 51
246.163575329749
  0
LINE
  8
0010010008
 10
54.2803872002931
 20
17.1205702502765
 11
54.4037636205676
 21
17.1992909651464
  0
ARC
  8
0010010010
 10
54.8650875464652
 20
17.7229510903802
 40
0.69788229047986
 50
171.411542391638
 51
228.621220313959
  0
LINE
  8
0010010008
 10
54.1750309693171
 20
17.8271701466995
 11
54.2888241401973
 21
17.8371956455358
  0
ARC
  8
0010010010
 10
55.1067638532576
 20
18.1814737290917
 40
0.887441701194016
 50
137.781577686167
 51
202.826657462116
  0
ARC
  8
0010010010
 10
54.7348354393819
 20
18.7782265876359
 40
0.285301097144823
 50
180.086083203086
 51
240.058793745969
  0
ARC
  8
0010010008
 10
54.2046397613123
 20
17.9318176269281
 40
0.713729770061871
 50
14.7289410605828
 51
57.08862476082
  0
LINE
  8
0010010008
 10
54.8949159799957
 20
18.1132809196147
 11
55.0120818844248
 21
18.1530591979911
  0
ARC
  8
0010010010
 10
54.3541851611493
 20
17.633439565339
 40
0.838351156219325
 50
349.003278774096
 51
38.3023657207506
  0
LINE
  8
0010010008
 10
55.1771425980798
 20
17.4735217172574
 11
55.310809339315
 21
17.481298035955
  0
ARC
  8
0010010010
 10
54.1611916999934
 20
17.3461111036104
 40
1.1575388647109
 50
331.381416571167
 51
6.70677904089746
  0
ARC
  8
0010010010
 10
55.8577545751403
 20
16.5722455541248
 40
0.714949776662383
 50
162.126359793358
 51
189.848773313955
  0
ARC
  8
0010010010
 10
55.7442507372966
 20
16.3691864323192
 40
0.596403812795785
 50
172.216783104831
 51
196.851010426911
  0
ARC
  8
0010010010
 10
54.8371829176755
 20
16.4842625359218
 40
0.442721674083022
 50
319.425193458953
 51
5.89559298780466
  0
ARC
  8
0010010010
 10
56.0230843895464
 20
16.7036746777285
 40
0.765543294811406
 50
140.30049725391
 51
193.132748209588
  0
LINE
  8
0010010008
 10
55.4340714752401
 20
17.1926739855103
 11
55.4985980632557
 21
17.1343707147566
  0
ARC
  8
0010010010
 10
55.9120224922703
 20
16.9545634952191
 40
0.45083300090374
 50
101.837356135627
 51
156.494736496529
  0
LINE
  8
0010010008
 10
55.8195412173188
 20
17.3958090147286
 11
55.8842817134571
 21
17.2871762589507
  0
ARC
  8
0010010010
 10
56.0841515565067
 20
17.0898444817921
 40
0.280869692984559
 50
83.245658199723
 51
135.366107480782
  0
ARC
  8
0010010010
 10
56.0301015105232
 20
17.6259071183361
 40
0.271488060558198
 50
288.709196768881
 51
334.103936233768
  0
ARC
  8
0010010010
 10
55.2814282050231
 20
17.298190817067
 40
1.01468911598977
 50
333.069676946843
 51
11.8950064995547
  0
LINE
  8
0010010008
 10
56.2721303869335
 20
16.7527879936849
 11
56.1860823627842
 21
16.8386314009371
  0
ARC
  8
0010010010
 10
55.7017446968787
 20
17.0810612866992
 40
0.658105759225445
 50
288.000623675715
 51
330.078341056396
  0
LINE
  8
0010010008
 10
55.9663950610468
 20
16.3578189609332
 11
55.9051173735606
 21
16.4551677296906
  0
ARC
  8
0010010010
 10
55.5667826073182
 20
16.8146741900675
 40
0.606965249056657
 50
258.620761765203
 51
311.176272688469
  0
ARC
  8
0010010010
 10
55.5308903299265
 20
15.9182108642704
 40
0.312878091869576
 50
105.5475558204
 51
156.490714686582
  0
ARC
  8
0010010008
 10
55.6182265257467
 20
15.8778827641604
 40
0.409057381703584
 50
156.190621084384
 51
193.488088635593
  0
ARC
  8
0010010010
 10
64.3311349260007
 20
17.3076310807594
 40
9.23745951715434
 50
189.503380847322
 51
193.843564039758
  0
ARC
  8
0010010010
 10
55.0224640834122
 20
15.3559602781899
 40
0.426795332812727
 50
322.706829757613
 51
15.5777341645679
  0
ARC
  8
0010010010
 10
55.9404424844847
 20
15.6115859038534
 40
0.526110155897165
 50
137.024837637138
 51
195.546887759409
  0
LINE
  8
0010010008
 10
55.5555143686745
 20
15.970225335312
 11
55.6357302881127
 21
15.8935891673032
  0
ARC
  8
0010010010
 10
56.2265033913182
 20
15.7111758262479
 40
0.618294012963028
 50
119.241001441349
 51
162.840851992807
  0
LINE
  8
0010010008
 10
55.9244765312794
 20
16.250682325079
 11
55.9825268219605
 21
16.1674448548224
  0
ARC
  8
0010010010
 10
56.2335456625372
 20
15.9531011113741
 40
0.330081351608844
 50
88.2920418382731
 51
139.506150817623
  0
ARC
  8
0010010010
 10
56.211150765279
 20
16.4954074965862
 40
0.214803855038163
 50
278.630277254469
 51
345.077315093037
  0
ARC
  8
0010010010
 10
55.097349137586
 20
16.1182251763847
 40
1.35999757562908
 50
341.247665450807
 51
13.6899277590948
  0
LINE
  8
0010010008
 10
56.3851540047136
 20
15.6810158101547
 11
56.4745408267523
 21
15.6167994546006
  0
ARC
  8
0010010010
 10
56.0906043879633
 20
15.6235032444961
 40
0.383994960681677
 50
277.443965929573
 51
358.999678587348
  0
LINE
  8
0010010008
 10
56.1908597183648
 20
15.1296853618968
 11
56.1403534378751
 21
15.2427445783285
  0
ARC
  8
0010010010
 10
55.8781342133736
 20
15.4545859663713
 40
0.450951931207635
 50
250.151544928915
 51
313.90610336523
  0
ARC
  8
0010010010
 10
55.6727427697694
 20
14.725000726829
 40
0.309864414612596
 50
80.2870014070662
 51
159.579508727298
  0
ARC
  8
0010010010
 10
56.9129339853837
 20
14.8614330321734
 40
1.53084484972034
 50
181.059947776562
 51
193.549200216611
  0
ARC
  8
0010010010
 10
60.7074127371038
 20
13.7471882190552
 40
5.33648259891843
 50
168.220448087099
 51
171.860077019196
  0
ARC
  8
0010010010
 10
57.0289139427498
 20
21.360862137232
 40
0.182835832395359
 50
88.7608009763554
 51
168.871477613597
  0
ARC
  8
0010010008
 10
56.8878826743508
 20
21.8462814104522
 40
0.451762172523913
 50
246.3103605102
 51
265.1281930716
  0
ARC
  8
0010010010
 10
56.3876039515152
 20
21.4838438919981
 40
0.322863413280708
 50
350.865207651122
 51
69.2117590485178
  0
ARC
  8
0010010010
 10
56.1655509090179
 20
22.065506244237
 40
0.437751006830708
 50
220.664916756766
 51
320.266553278694
  0
LINE
  8
0010010008
 10
55.8335021119345
 20
21.78025277741
 11
55.9511634191154
 21
21.9433159773008
  0
ARC
  8
0010010010
 10
56.0273497174126
 20
22.3541521331218
 40
0.417840518592881
 50
182.187877963247
 51
259.494294433639
  0
LINE
  8
0010010008
 10
55.6098137979834
 20
22.3382004885536
 11
55.7401265049407
 21
22.4408884299456
  0
ARC
  8
0010010010
 10
56.1447888016223
 20
22.701329664579
 40
0.481228855174976
 50
137.572831501162
 51
212.765390695605
  0
ARC
  8
0010010010
 10
56.0046199085743
 20
23.1549690876379
 40
0.250756255434181
 50
210.95420612476
 51
275.421884820634
  0
ARC
  8
0010010010
 10
55.8799747020648
 20
22.4019289569087
 40
0.524806415108212
 50
49.1635040919598
 51
73.5813123112232
  0
LINE
  8
0010010008
 10
56.3347588760608
 20
22.9198541715149
 11
56.2231470115171
 21
22.798986307129
  0
ARC
  8
0010010010
 10
56.0649701149876
 20
22.4801524462948
 40
0.51587167276648
 50
359.914358377114
 51
58.4678782525855
  0
LINE
  8
0010010008
 10
56.5808412114707
 20
22.4793813585955
 11
56.6756964123024
 21
22.5200937979993
  0
ARC
  8
0010010010
 10
56.1681046895241
 20
22.241236278684
 40
0.579146676681949
 50
330.334849419675
 51
28.7832340558284
  0
ARC
  8
0010010010
 10
56.9922938006936
 20
22.0001867563473
 40
0.324171089596486
 50
188.084214482322
 51
234.333663315545
  0
ARC
  8
0010010010
 10
58.528525631001
 20
21.5694951170218
 40
1.73333958704103
 50
160.78524841917
 51
174.460371431063
  0
ARC
  8
0010010010
 10
56.455792170179
 20
22.1357421914347
 40
0.435975677515836
 50
0.553539456834187
 51
32.8927225643621
  0
ARC
  8
0010010010
 10
57.484678854284
 20
22.7678858295871
 40
0.771772175158826
 50
164.686959100218
 51
210.817187992876
  0
LINE
  8
0010010008
 10
56.7403066487212
 20
22.9717051366582
 11
56.8548356057028
 21
22.9570942240162
  0
ARC
  8
0010010010
 10
57.8134942980004
 20
23.0686187848537
 40
0.965123938148671
 50
134.724854622793
 51
186.63561755244
  0
LINE
  8
0010010008
 10
57.1343337087035
 20
23.7543338203703
 11
57.2422303028284
 21
23.6794535899805
  0
ARC
  8
0010010010
 10
57.7527241825606
 20
23.3439374392564
 40
0.610880584599633
 50
77.4095633731859
 51
146.685548491548
  0
ARC
  8
0010010008
 10
58.303546245442
 20
23.6780397620891
 40
0.493084191828621
 50
147.891183119663
 51
195.382449974997
  0
ARC
  8
0010010010
 10
57.0407924566269
 20
23.5314467567674
 40
0.787491960696559
 50
341.369726333016
 51
1.14943122309501
  0
LINE
  8
0010010008
 10
57.7870196397731
 20
23.2798745418957
 11
57.9089064659907
 21
23.2458895062339
  0
ARC
  8
0010010010
 10
57.2318966316217
 20
23.2577478087727
 40
0.677113679651753
 50
314.167593753582
 51
358.996526811144
  0
LINE
  8
0010010008
 10
57.7036820271411
 20
22.7720509117823
 11
57.7941517098643
 21
22.6982994038798
  0
ARC
  8
0010010010
 10
57.0463552618147
 20
22.9736703234688
 40
0.796886862152319
 50
282.346321788557
 51
339.784115960487
  0
ARC
  8
0010010008
 10
57.5017111428909
 20
21.699226653017
 40
0.572020760186738
 50
119.879206282969
 51
180.407152484126
  0
ARC
  8
0010010008
 10
56.9194880442456
 20
21.9986561733411
 40
0.303666271522961
 50
271.928067063225
 51
337.429629823534
  0
ARC
  8
0010010008
 10
57.7033412418276
 20
21.7484649124571
 40
0.520880274034056
 50
111.151969642966
 51
165.133766180135
  0
LINE
  8
0010010008
 10
57.5153852997672
 20
22.2342517213785
 11
57.5731509169183
 21
22.1514913677837
  0
ARC
  8
0010010008
 10
57.9796651175882
 20
21.9251642806237
 40
0.465271690229117
 50
91.223046314388
 51
150.893093591219
  0
LINE
  8
0010010008
 10
57.9697340962056
 20
22.3903299721175
 11
58.0068008231348
 21
22.322602448243
  0
ARC
  8
0010010010
 10
58.1628487853794
 20
22.088664759329
 40
0.281207768056054
 50
65.2477822974434
 51
123.705240906278
  0
ARC
  8
0010010010
 10
58.3116682921468
 20
22.4644145371629
 40
0.124324748636732
 50
255.523408977613
 51
342.822270022909
  0
ARC
  8
0010010010
 10
57.760255847397
 20
22.3263118036704
 40
0.677816741837644
 50
304.961386607797
 51
8.60235187629746
  0
LINE
  8
0010010008
 10
58.1486612804555
 20
21.7708149494164
 11
58.2007256846705
 21
21.6270266732925
  0
ARC
  8
0010010010
 10
57.8013854166948
 20
21.8355582649706
 40
0.450508683994807
 50
266.166025806866
 51
332.426875704374
  0
LINE
  8
0010010008
 10
57.7712619072912
 20
21.3860578216606
 11
57.7517254423793
 21
21.226411680926
  0
ARC
  8
0010010008
 10
57.7307985445432
 20
21.8626887199986
 40
0.636621084715233
 50
225.121390045196
 51
271.883756277631
  0
ARC
  8
0010010010
 10
56.9720766473809
 20
21.128938318263
 40
0.419148769142989
 50
42.4010326815692
 51
81.660675027279
  0
ARC
  8
0010010010
 10
57.2591362109549
 20
18.0422271274423
 40
0.75245648434113
 50
171.249295339834
 51
210.968129629387
  0
ARC
  8
0010010010
 10
56.7700372144122
 20
18.1926258192984
 40
0.559787979765262
 50
181.860689751108
 51
253.808345612921
  0
ARC
  8
0010010008
 10
56.6215754603815
 20
17.5695486621174
 40
0.731335719136953
 50
100.39230179815
 51
124.196155636315
  0
ARC
  8
0010010010
 10
56.2220328870778
 20
18.1680726397161
 40
0.293625930962877
 50
357.780768868226
 51
24.2964494657217
  0
ARC
  8
0010010010
 10
57.0971754776376
 20
19.964811006196
 40
0.98426257857283
 50
299.680061526824
 51
318.687494391453
  0
ARC
  8
0010010010
 10
58.1672254678369
 20
19.2199385357399
 40
0.344150042286142
 50
116.512835826693
 51
163.959201464279
  0
ARC
  8
0010010008
 10
58.4069711071212
 20
19.8770869397842
 40
0.526001185984238
 50
221.594922295285
 51
240.462518920969
  0
ARC
  8
0010010010
 10
57.709450486872
 20
19.5493276511685
 40
0.457048104560678
 50
254.139284141547
 51
343.490765662805
  0
ARC
  8
0010010010
 10
58.964822281026
 20
19.0793340030599
 40
0.61576628319754
 50
164.156029867584
 51
205.514460002578
  0
ARC
  8
0010010010
 10
58.1866115411236
 20
19.3530602988195
 40
0.213750882942605
 50
330.390708019758
 51
355.566724296039
  0
ARC
  8
0010010008
 10
58.4650657901255
 20
19.7304689460703
 40
0.399313747065231
 50
248.775338704885
 51
260.581877772794
  0
ARC
  8
0010010008
 10
58.4069711071212
 20
19.8770869397842
 40
0.526001185984238
 50
250.360180309542
 51
260.538434823423
  0
ARC
  8
0010010003
 10
56.1791763133413
 20
17.9475415782709
 40
0.684820724084497
 50
344.075957132286
 51
26.9028180877933
  0
ARC
  8
0010010008
 10
57.4787765368118
 20
17.5585126699905
 40
0.671872982165098
 50
162.580144197624
 51
209.778174421727
  0
ARC
  8
0010010003
 10
58.1356185223863
 20
18.8976171019299
 40
0.262743996781479
 50
251.7234272576
 51
326.029194704254
  0
ARC
  8
0010010003
 10
58.7759320538621
 20
19.0135605117087
 40
0.497468450332391
 50
211.88312205607
 51
276.450009470951
  0
ARC
  8
0010010003
 10
62.0811251400443
 20
19.2551157200507
 40
3.33159464213033
 50
192.760587014982
 51
201.450192845653
  0
ARC
  8
0010010008
 10
58.3349090538673
 20
17.8012949258486
 40
0.687000284761939
 50
351.731325473001
 51
20.0456631618811
  0
ARC
  8
0010010008
 10
58.7772063991007
 20
17.2917706032679
 40
0.474477557621664
 50
59.9550223555625
 51
82.4581096041153
  0
ARC
  8
0010010008
 10
58.0086591762475
 20
17.9458237635411
 40
0.850884893002273
 50
347.533446872046
 51
9.93062291469745
  0
ARC
  8
0010010003
 10
59.1899925591139
 20
17.7734712813551
 40
0.252312381335782
 50
235.573960175338
 51
307.331908445031
  0
ARC
  8
0010010003
 10
62.0992440834224
 20
16.487094422288
 40
2.96238567473194
 50
158.499246483666
 51
176.38037563657
  0
ARC
  8
0010010003
 10
54.6863036359443
 20
15.4115837663524
 40
2.4199897445018
 50
12.5387769778806
 51
46.6945856067623
  0
ARC
  8
0010010003
 10
57.3602496399983
 20
15.7386603749626
 40
0.369412458355621
 50
59.861382280168
 51
147.533327475804
  0
ARC
  8
0010010003
 10
57.066879144133
 20
15.670828783304
 40
0.615875119965914
 50
6.97742636920157
 51
38.9666798007924
  0
ARC
  8
0010010008
 10
58.1480857643065
 20
15.2865907151036
 40
0.656908827338506
 50
106.778941862688
 51
135.668506095094
  0
LINE
  8
0010010008
 10
57.9584493699292
 20
15.9155320838836
 11
57.9953467491907
 21
15.877516287014
  0
ARC
  8
0010010003
 10
58.0965569685935
 20
15.3761496421282
 40
0.511480225537289
 50
86.0443155663826
 51
101.412844504979
  0
ARC
  8
0010010008
 10
58.4830488327705
 20
15.1801826608832
 40
0.78873675636907
 50
82.1913750842582
 51
116.441153632437
  0
ARC
  8
0010010008
 10
57.7222639179947
 20
15.5914614923093
 40
0.943577106341428
 50
23.0963007728477
 51
72.7235313746216
  0
ARC
  8
0010010003
 10
58.2866863750486
 20
18.1934835722173
 40
1.7245940511741
 50
244.7064812354
 51
260.514947812325
  0
ARC
  8
0010010003
 10
60.4637162829386
 20
20.5581470619596
 40
4.88751653247595
 50
226.794655723889
 51
233.402724332035
  0
ARC
  8
0010010008
 10
56.552059380514
 20
16.3003250241422
 40
0.896279268201906
 50
50.8730054698458
 51
103.282076311109
  0
ARC
  8
0010010008
 10
58.2866863750486
 20
18.1934835722173
 40
1.6345940511741
 50
254.026876640202
 51
260.413704926892
  0
ARC
  8
0010010003
 10
57.5228414367925
 20
17.0639778785462
 40
0.542178515759063
 50
305.393914872672
 51
10.7280289876607
  0
ARC
  8
0010010003
 10
57.6471458552759
 20
17.1004515013231
 40
0.413452255309393
 50
8.96818746451947
 51
50.1886542431136
  0
ARC
  8
0010010003
 10
57.7102478677586
 20
17.6122697660759
 40
0.279948417094526
 50
316.070060780926
 51
70.0340162754968
  0
ARC
  8
0010010003
 10
58.5946145093777
 20
17.6999151338743
 40
0.80805809861484
 50
111.488805526286
 51
167.457792240809
  0
ARC
  8
0010010008
 10
58.9260145407681
 20
17.9720330702579
 40
0.789823162219931
 50
142.595264534019
 51
189.079785705343
  0
ARC
  8
0010010003
 10
58.0086591762475
 20
17.9458237635411
 40
0.76088489300227
 50
327.655556098196
 51
9.58234303972245
  0
ARC
  8
0010010003
 10
58.3931017783824
 20
17.5731948941274
 40
0.260675279594864
 50
352.40564313581
 51
69.4403538909432
  0
ARC
  8
0010010003
 10
58.5205689168535
 20
17.5317786476449
 40
0.287739533053588
 50
97.1717557858378
 51
149.814603016597
  0
ARC
  8
0010010008
 10
51.9547575831604
 20
16.5184599663099
 40
6.42234819247364
 50
10.3876393159948
 51
12.090705760392
  0
ARC
  8
0010010008
 10
58.6113082555693
 20
17.308208383866
 40
0.671142822290956
 50
99.2837441932154
 51
124.141159471198
  0
ARC
  8
0010010008
 10
58.4594040035261
 20
18.0818674901926
 40
0.119553885778104
 50
291.405397819288
 51
11.1539475657588
  0
ARC
  8
0010010008
 10
58.3798820748689
 20
18.0760280763014
 40
0.198937716660762
 50
8.37239887937662
 51
118.85381648368
  0
ARC
  8
0010010008
 10
58.9260145407681
 20
17.9720330702579
 40
0.69982316221993
 50
138.471815678688
 51
156.573050188133
  0
ARC
  8
0010010003
 10
58.2420164729927
 20
17.9219859974651
 40
0.538374418537457
 50
16.2328848884977
 51
72.701041987941
  0
ARC
  8
0010010008
 10
57.4650035366751
 20
17.1571146904922
 40
0.795613586328261
 50
313.679456535043
 51
16.5252588466035
  0
ARC
  8
0010010003
 10
51.9547575831604
 20
16.5184599663099
 40
6.33234819247364
 50
7.85077317849414
 51
12.114377171893
  0
ARC
  8
0010010003
 10
54.679351576651
 20
18.7558129006991
 40
0.638076697021357
 50
29.5713231084103
 51
95.4334161171524
  0
ARC
  8
0010010003
 10
54.1611172672287
 20
18.1996615066585
 40
1.38219844527502
 50
17.1089086502579
 51
39.0640792144008
  0
ARC
  8
0010010003
 10
55.8824624439825
 20
18.7346998926096
 40
0.420404174574754
 50
197.785016380988
 51
257.346752665428
  0
ARC
  8
0010010003
 10
56.0858274716543
 20
18.2631789678643
 40
0.301752228290081
 50
94.4199082968301
 51
168.273757251453
  0
ARC
  8
0010010003
 10
55.7738807210736
 20
18.2078142563258
 40
0.458514420939359
 50
10.1850067464056
 51
50.977549711026
  0
ARC
  8
0010010003
 10
56.6215754603815
 20
17.5695486621174
 40
0.821335719136958
 50
78.5728691005494
 51
118.857660864686
  0
ARC
  8
0010010003
 10
56.6868921859575
 20
19.3138162144167
 40
0.944250435715225
 50
275.921085108188
 51
297.591285447983
  0
ARC
  8
0010010003
 10
56.7633839621201
 20
18.8542904489486
 40
0.52210747581778
 50
313.720275798563
 51
345.574769370435
  0
ARC
  8
0010010003
 10
56.2980697239187
 20
17.6165528134437
 40
1.47299143742701
 50
48.7628924316258
 51
71.4425800978299
  0
ARC
  8
0010010003
 10
56.4694652691971
 20
17.6293186733095
 40
1.41523661815655
 50
77.8697191644631
 51
95.7947381772534
  0
ARC
  8
0010010008
 10
56.1908232270325
 20
19.6189501590894
 40
0.597259147656472
 50
227.462238992933
 51
283.137746772127
  0
ARC
  8
0010010003
 10
52.9788391720445
 20
16.6572969490483
 40
3.77415857208088
 50
41.9217793918685
 51
50.2895131645091
  0
ARC
  8
0010010003
 10
55.0787611079529
 20
19.1385550928336
 40
0.524577894320269
 50
53.582884360966
 51
151.231125314269
  0
ARC
  8
0010010003
 10
54.5718112071537
 20
20.4165336052609
 40
0.239498177178723
 50
250.506776660171
 51
327.388769237326
  0
ARC
  8
0010010003
 10
54.8988416087402
 20
20.1356792409141
 40
0.196811542817116
 50
84.2666603543498
 51
129.538625050279
  0
ARC
  8
0010010008
 10
54.0282718231674
 20
19.9619605654609
 40
0.963885506797997
 50
14.7952745868858
 51
22.5439304179812
  0
ARC
  8
0010010008
 10
55.7875664082314
 20
20.1454083370626
 40
0.829739296416455
 50
175.666550059028
 51
208.245467650131
  0
ARC
  8
0010010008
 10
55.0787611079529
 20
19.1385550928336
 40
0.614577894320267
 50
92.0640847085374
 51
118.260914322308
  0
ARC
  8
0010010003
 10
55.1982851681793
 20
20.2587426303345
 40
0.709656835439388
 50
185.496901947711
 51
234.656621794628
  0
ARC
  8
0010010003
 10
55.7875664082314
 20
20.1454083370626
 40
0.739739296416456
 50
174.551671327616
 51
212.571453780843
  0
ARC
  8
0010010003
 10
54.0282718231674
 20
19.9619605654609
 40
1.05388550679799
 50
13.9286606840498
 51
39.8694578807027
  0
ARC
  8
0010010003
 10
54.4632248005526
 20
21.3711473258182
 40
0.823397662626819
 50
297.007558665162
 51
346.402564949812
  0
ARC
  8
0010010003
 10
55.7082576135153
 20
22.2649861376328
 40
1.17484006931747
 50
247.757262817881
 51
264.967376029446
  0
ARC
  8
0010010003
 10
55.5511879430297
 20
20.6299550332336
 40
0.467848066131511
 50
35.6222379431786
 51
83.3708917027358
  0
ARC
  8
0010010008
 10
56.3848840826058
 20
20.8142503632899
 40
0.461892986294554
 50
168.991904242518
 51
172.916873426836
  0
ARC
  8
0010010008
 10
58.7532652477365
 20
20.0571977053317
 40
2.94161862714975
 50
163.935385409636
 51
167.812108402206
  0
ARC
  8
0010010008
 10
56.1908232270325
 20
19.6189501590894
 40
0.507259147656473
 50
281.08542991549
 51
283.753468208788
  0
ARC
  8
0010010003
 10
55.8854926282093
 20
19.4520039924448
 40
0.52130494682863
 50
320.605664160381
 51
32.5542715133239
  0
ARC
  8
0010010003
 10
55.837230419682
 20
19.4075227561603
 40
0.586032865328987
 50
33.6808987527435
 51
62.2920030395397
  0
ARC
  8
0010010003
 10
55.9141334363477
 20
20.0581839738137
 40
0.235863046082326
 50
326.018592862492
 51
90.6400878410571
  0
ARC
  8
0010010003
 10
58.7532652477365
 20
20.0571977053317
 40
2.85161862714974
 50
163.786713499147
 51
175.235943799127
  0
ARC
  8
0010010003
 10
56.3848840826058
 20
20.8142503632899
 40
0.371892986294553
 50
103.553166170892
 51
173.955821824543
  0
ARC
  8
0010010008
 10
56.5316604409171
 20
20.9060995484907
 40
0.357007010243188
 50
130.938550529557
 51
144.650909493803
  0
ARC
  8
0010010008
 10
56.6220570698342
 20
20.9133214369803
 40
0.430510803394707
 50
152.419078284108
 51
193.195803235688
  0
ARC
  8
0010010003
 10
56.6573296368101
 20
20.6701852762906
 40
0.476946677263418
 50
162.31868866887
 51
179.634509090841
  0
ARC
  8
0010010003
 10
60.2794651191723
 20
21.6793119692221
 40
4.22073459697683
 50
193.790185242749
 51
198.94911176391
  0
ARC
  8
0010010008
 10
56.4694652691971
 20
17.6293186733095
 40
1.50523661815655
 50
88.5212878976835
 51
96.0269380163082
  0
ARC
  8
0010010003
 10
55.6396874252321
 20
19.4980675045727
 40
0.941811409900129
 50
337.26288371539
 51
21.9128133759286
  0
ARC
  8
0010010003
 10
60.7725970776876
 20
22.2309790806766
 40
4.87970331425842
 50
203.199223537982
 51
209.211052140369
  0
ARC
  8
0010010003
 10
56.5852426250671
 20
20.5954437304899
 40
0.46186484459847
 50
290.544281048975
 51
18.3666504428911
  0
ARC
  8
0010010003
 10
56.5109121047469
 20
20.2760400070995
 40
0.262068575182941
 50
334.436116559253
 51
52.8841013226885
  0
ARC
  8
0010010008
 10
56.6020544489175
 20
20.8593459598592
 40
0.380276510076558
 50
280.147394173663
 51
297.242279098574
  0
ARC
  8
0010010008
 10
56.6733196151928
 20
20.6526926353123
 40
0.166873011598833
 50
308.030805179253
 51
64.1416844040329
  0
ARC
  8
0010010008
 10
56.6485015529463
 20
20.6349602825882
 40
0.194203772858238
 50
59.830413767675
 51
187.854550133991
  0
ARC
  8
0010010003
 10
56.6020544489175
 20
20.8593459598592
 40
0.290276510076552
 50
217.774456258303
 51
239.818312289308
  0
ARC
  8
0010010003
 10
56.6220570698342
 20
20.9133214369803
 40
0.340510803394707
 50
153.46242374054
 51
222.898372524031
  0
ARC
  8
0010010003
 10
56.5316604409171
 20
20.9060995484907
 40
0.267007010243185
 50
53.9949863479336
 51
143.357044009835
  0
ARC
  8
0010010003
 10
56.2959653826866
 20
20.439251031189
 40
0.787693276568239
 50
22.5226460821026
 51
60.0998907838893
  0
ARC
  8
0010010003
 10
58.0138011915796
 20
19.0619471447743
 40
0.711880110079016
 50
107.187953000626
 51
142.950904037426
  0
ARC
  8
0010010003
 10
56.7221824220033
 20
19.8318464854534
 40
0.799787735039154
 50
283.620570875155
 51
334.763643432556
  0
ARC
  8
0010010008
 10
56.2980697239187
 20
17.6165528134437
 40
1.56299143742701
 50
66.9304440971841
 51
71.6276922996561
  0
ARC
  8
0010010008
 10
56.4694652691971
 20
17.6293186733095
 40
1.50523661815655
 50
77.6772786291252
 51
78.605574485842
  0
ARC
  8
0010010008
 10
56.0389643189033
 20
19.7920422275366
 40
1.00099371481642
 50
316.648487509257
 51
23.3362438595983
  0
ARC
  8
0010010008
 10
56.5852426250671
 20
20.5954437304899
 40
0.551864844598468
 50
312.499383132184
 51
5.98816493333133
  0
ARC
  8
0010010003
 10
57.1930823264035
 20
20.4750103535955
 40
0.187524274070347
 50
45.984640163261
 51
108.333767596419
  0
ARC
  8
0010010003
 10
57.6653949964042
 20
20.897630702605
 40
0.446965775155095
 50
220.076606667568
 51
272.668428111909
  0
ARC
  8
0010010003
 10
59.2652578863754
 20
20.3479527531503
 40
1.58242248961537
 50
176.260833084084
 51
202.513749878537
  0
ARC
  8
0010010003
 10
57.2696839815318
 20
19.0208602197673
 40
0.344598103197118
 50
295.126571008969
 51
340.008681725109
  0
ARC
  8
0010010003
 10
57.9635018931751
 20
19.1556989152633
 40
0.448017368319885
 50
181.081864590456
 51
214.327818078618
  0
ARC
  8
0010010003
 10
57.29364733939
 20
19.0896914179256
 40
0.229257509911053
 50
14.5379488281438
 51
56.3678017658069
  0
ARC
  8
0010010003
 10
56.1055179990105
 20
21.8332582179125
 40
0.387478162942696
 50
270.953769524543
 51
321.602072377354
  0
ARC
  8
0010010003
 10
56.1770443490023
 20
20.9670715064054
 40
0.483164806047167
 50
97.7405815643541
 51
156.805573207488
  0
ARC
  8
0010010008
 10
55.5511879430297
 20
20.6299550332336
 40
0.557848066131511
 50
42.2381475656513
 51
70.986260285258
  0
ARC
  8
0010010008
 10
56.3848840826058
 20
20.8142503632899
 40
0.461892986294554
 50
75.6168652360247
 51
155.615292050311
  0
ARC
  8
0010010008
 10
56.5316604409171
 20
20.9060995484907
 40
0.357007010243188
 50
54.8001108916538
 51
95.1489925854226
  0
ARC
  8
0010010008
 10
56.2959653826866
 20
20.439251031189
 40
0.877693276568236
 50
22.3132110259332
 51
59.8009330902202
  0
ARC
  8
0010010008
 10
56.5852426250671
 20
20.5954437304899
 40
0.551864844598468
 50
15.3990638621402
 51
18.7115764402252
  0
ARC
  8
0010010008
 10
57.1930823264035
 20
20.4750103535955
 40
0.277524274070343
 50
58.2277705306789
 51
105.847759896912
  0
ARC
  8
0010010003
 10
56.9640419275032
 20
20.7824363904507
 40
0.38191958151963
 50
349.211494448021
 51
38.6784933842193
  0
ARC
  8
0010010003
 10
58.4410130623913
 20
22.0138433477811
 40
1.54114310437919
 50
206.250903016224
 51
220.101932040251
  0
ARC
  8
0010010003
 10
56.8878826743508
 20
21.8462814104522
 40
0.541762172523915
 50
207.922348686528
 51
288.391661265461
  0
ARC
  8
0010010003
 10
58.1645800214727
 20
19.9549252878174
 40
0.314992683334063
 50
11.3794024422989
 51
61.5282420543024
  0
ARC
  8
0010010003
 10
58.0358648386757
 20
19.8719094559705
 40
0.460969710393649
 50
298.705143821084
 51
18.3555729153537
  0
ARC
  8
0010010003
 10
58.4069711071212
 20
19.8770869397842
 40
0.436001185984238
 50
249.918827335251
 51
260.538434823424
  0
ARC
  8
0010010008
 10
58.4547114305631
 20
19.668223463159
 40
0.251379559486697
 50
241.638706405265
 51
280.68004513407
  0
ARC
  8
0010010003
 10
57.9361563957051
 20
19.8511238472632
 40
0.71008527386889
 50
322.738336897999
 51
0.559391438848934
  0
ARC
  8
0010010008
 10
53.9786404972972
 20
19.8989612319108
 40
4.66774656315467
 50
359.49789456282
 51
7.80765627028728
  0
ARC
  8
0010010003
 10
59.5517501022227
 20
20.5969672491394
 40
0.950784330579041
 50
157.144761923217
 51
183.853751069887
  0
ARC
  8
0010010003
 10
58.9030183181332
 20
20.8661880268606
 40
0.248448970185179
 50
111.628476161499
 51
156.248535405259
  0
ARC
  8
0010010008
 10
59.1296071439706
 20
20.9998689025822
 40
0.332702192474857
 50
162.999470010975
 51
234.061973817573
  0
ARC
  8
0010010008
 10
59.009429597524
 20
20.8412289564982
 40
0.133791384258189
 50
235.858628679294
 51
326.650686671273
  0
ARC
  8
0010010003
 10
58.7898037159663
 20
20.8538925741763
 40
0.34241771303755
 50
345.417057897973
 51
119.758654665397
  0
ARC
  8
0010010003
 10
61.5508136377467
 20
18.2924119931134
 40
4.09426154576602
 50
135.714727309798
 51
143.131583467958
  0
ARC
  8
0010010003
 10
58.1170759484286
 20
20.4767898447355
 40
0.314774776270456
 50
308.900512770625
 51
59.8153814911514
  0
LINE
  8
0010010010
 10
52.5
 20
27.6859110252992
 11
60.26
 21
27.6859110252992
  0
LINE
  8
0010010010
 10
60.26
 20
27.6859110252992
 11
60.26
 21
0
  0
ARC
  8
0090010010
 10
60
 20
178.875
 40
150.375
 50
264.275189547777
 51
267.141169054144
  0
LINE
  8
0010010010
 10
52.5
 20
28.6871488768149
 11
52.5
 21
0
  0
LINE
  8
0090010010
 10
0
 20
0
 11
60.26
 21
0
  0
ARC
  8
0010010008
 10
59.8877706197175
 20
11.0234772489201
 40
3.2458768860684
 50
161.423331128391
 51
166.38711176671
  0
ARC
  8
0010010008
 10
57.4478746621809
 20
11.1829434595163
 40
0.936129945460332
 50
128.692440643705
 51
139.779682378971
  0
LINE
  8
0010010008
 10
56.8626626836159
 20
11.9136049508593
 11
56.9253481712455
 21
11.8452255178353
  0
ARC
  8
0010010008
 10
57.3902921346549
 20
11.3810160332038
 40
0.65701090914285
 50
76.6361642740718
 51
135.045291254574
  0
LINE
  8
0010010008
 10
57.5421495989884
 20
12.0202363749162
 11
57.5795027071499
 21
11.9048958471595
  0
ARC
  8
0010010008
 10
57.6651659894963
 20
11.4142474034393
 40
0.498070369794722
 50
22.0733469403265
 51
99.9035606787774
  0
ARC
  8
0010010008
 10
58.2919604435384
 20
11.3775234627444
 40
0.278263177678716
 50
126.426673975013
 51
169.207793989705
  0
ARC
  8
0010010008
 10
57.7919851209845
 20
11.4484504779231
 40
0.227414175971418
 50
319.168779807561
 51
355.252245672714
  0
LINE
  8
0010010008
 10
57.9640555323835
 20
11.2997595873018
 11
57.9843153555558
 21
11.2805970166231
  0
ARC
  8
0010010008
 10
57.5444463328363
 20
11.3313187501046
 40
0.442783752406929
 50
273.759248886363
 51
353.422218250243
  0
LINE
  8
0010010008
 10
57.573477098115
 20
10.8894877121921
 11
57.5832098211459
 21
10.8122283104122
  0
ARC
  8
0010010008
 10
57.0360792744667
 20
11.6034771645472
 40
0.961990948127604
 50
287.683275689608
 51
304.662974664919
  0
ARC
  8
0010010008
 10
57.0506620674461
 20
10.229974382984
 40
0.534690828543549
 50
42.3439686616507
 51
58.7194820684606
  0
LINE
  8
0010010008
 10
57.4458597631007
 20
10.5901313813581
 11
57.4307923454329
 21
10.5328595635395
  0
ARC
  8
0010010008
 10
57.2702473309362
 20
10.0581083773578
 40
0.501162040123447
 50
10.467111175221
 51
71.3161782308685
  0
LINE
  8
0010010008
 10
57.7630697100047
 20
10.1491550310576
 11
57.6545394837469
 21
10.0563655474628
  0
ARC
  8
0010010008
 10
57.0309310139476
 20
9.74171819984703
 40
0.698491572581327
 50
330.887691242173
 51
26.7736450234757
  0
ARC
  8
0010010008
 10
57.3018056774051
 20
8.83159512307099
 40
0.663631608111145
 50
59.2435073726591
 51
93.0281857431579
  0
ARC
  8
0010010008
 10
57.3351953050206
 20
9.92807450504872
 40
0.439141551193557
 50
234.58226774206
 51
261.032949156483
  0
LINE
  8
0010010008
 10
57.0806981019828
 20
9.57019676666503
 11
57.0343653547649
 21
9.4691388592908
  0
ARC
  8
0010010008
 10
57.0244395731768
 20
9.90805937629925
 40
0.439032733849197
 50
203.674690195161
 51
271.295470264978
  0
LINE
  8
0010010008
 10
56.6223558077891
 20
9.7317687440958
 11
56.5210548304073
 21
9.66780081230871
  0
ARC
  8
0010010008
 10
57.1634537808884
 20
10.0310578996574
 40
0.737991953267913
 50
147.635029777847
 51
209.486840216248
  0
ARC
  8
0010010008
 10
56.4989357118712
 20
10.4206855349787
 40
0.0415253905016146
 50
7.50980361979474
 51
74.7889451657012
  0
ARC
  8
0010010008
 10
56.4695561326834
 20
10.3807439696659
 40
0.0895768121865242
 50
63.281200493484
 51
84.4160270328786
  0
ARC
  8
0010010008
 10
56.510527208868
 20
10.3030205711555
 40
0.169963781308551
 50
100.939644167127
 51
144.5485562048
  0
LINE
  8
0010010008
 10
56.372073463082
 20
10.4016017419465
 11
56.3315589505469
 21
10.3462548253257
  0
ARC
  8
0010010008
 10
60.2244769424497
 20
9.91448037175687
 40
3.91678945954909
 50
173.671032047189
 51
187.847698726916
  0
ARC
  8
0010010008
 10
55.8149013209908
 20
8.96383664407103
 40
0.673248443716385
 50
344.749387296196
 51
38.1460399508584
  0
ARC
  8
0010010008
 10
56.1977428751953
 20
8.41021745529496
 40
0.461411293639127
 50
54.689640630909
 51
77.4779393947324
  0
ARC
  8
0010010008
 10
67.7082311513737
 20
7.81817962246665
 40
11.457969059558
 50
174.779874518509
 51
190.643446976223
  0
ARC
  8
0010010008
 10
55.8149648664927
 20
5.10920942589025
 40
0.866764292509004
 50
355.231490407901
 51
43.1438677494007
  0
ARC
  8
0010010008
 10
54.9272737221798
 20
12.3684934203911
 40
0.602692593123155
 50
317.829774364372
 51
354.0498524088
  0
ARC
  8
0010010008
 10
68.1060714436923
 20
15.9026822035385
 40
13.3274435508913
 50
194.01676830015
 51
197.189943761163
  0
ARC
  8
0010010010
 10
55.391046503866
 20
12.5902831987006
 40
0.231529358420319
 50
88.9211249329667
 51
158.617416113955
  0
ARC
  8
0010010008
 10
55.5351989312057
 20
13.1731787736737
 40
0.378191945670526
 50
248.306887314671
 51
332.329553480756
  0
ARC
  8
0010010008
 10
54.3541851611493
 20
17.633439565339
 40
0.928351156219327
 50
29.9693927892118
 51
42.2764566189851
  0
LINE
  8
0010010008
 10
54.9519315557409
 20
18.2276833350854
 11
55.0410792183286
 21
18.2579493118326
  0
ARC
  8
0010010008
 10
54.2046397613123
 20
17.9318176269281
 40
0.803729770061872
 50
21.5994668329651
 51
57.275559189193
  0
ARC
  8
0010010008
 10
54.7348354393819
 20
18.7782265876359
 40
0.195301097144824
 50
180.086083203086
 51
240.658597190806
  0
LINE
  8
0010010008
 10
54.5395345626647
 20
18.777933160479
 11
54.5028999557069
 21
18.9500702893675
  0
ARC
  8
0010010008
 10
55.1067638532576
 20
18.1814737290917
 40
0.977441701194013
 50
128.155687107002
 51
195.71622544727
  0
LINE
  8
0010010008
 10
54.0999521561296
 20
17.9109041113926
 11
54.1658637346353
 21
17.9167111070893
  0
ARC
  8
0010010008
 10
54.8650875464652
 20
17.7229510903802
 40
0.78788229047986
 50
166.198746900611
 51
220.074769126303
  0
LINE
  8
0010010008
 10
54.1875786299378
 20
17.16811301903
 11
54.2621960987088
 21
17.2157229307973
  0
ARC
  8
0010010008
 10
54.7794479350605
 20
17.1738537076279
 40
0.59189714465606
 50
180.555708686948
 51
221.423537716262
  0
ARC
  8
0010010008
 10
54.0772202861805
 20
16.3708126625417
 40
0.485844843358365
 50
57.8690018713626
 51
110.793430886066
  0
LINE
  8
0010010008
 10
53.9073921106655
 20
16.7315727762691
 11
53.9047454737629
 21
16.8250126745402
  0
ARC
  8
0010010008
 10
53.9407669342599
 20
16.298968533472
 40
0.433889743755333
 50
94.4115522126785
 51
125.461519935482
  0
ARC
  8
0010010008
 10
53.5706335773386
 20
16.7450898245961
 40
0.150389651153515
 50
184.059290513885
 51
321.938735419504
  0
ARC
  8
0010010008
 10
53.9945070821635
 20
16.5946626620816
 40
0.590663867692812
 50
166.311028923134
 51
261.549179232974
  0
LINE
  8
0010010008
 10
53.8957084364268
 20
15.9319859364515
 11
53.9077028571066
 21
16.010412004307
  0
ARC
  8
0010010008
 10
54.2057705730358
 20
16.4002820344167
 40
0.561640244220476
 50
236.49117741537
 51
258.384094946484
  0
LINE
  8
0010010008
 10
54.076888596831
 20
15.7770545243503
 11
54.0926844002149
 21
15.8501445230209
  0
ARC
  8
0010010008
 10
54.0108014987466
 20
15.1842548836227
 40
0.596472060183908
 50
83.6387597975166
 51
118.452040207282
  0
ARC
  8
0010010008
 10
53.6378147888565
 20
15.8810235734987
 40
0.193879400864551
 50
232.323434213014
 51
297.263761795769
  0
ARC
  8
0010010008
 10
54.1410680591758
 20
15.5312208383153
 40
0.652020736702979
 50
162.473656208407
 51
241.142146307138
  0
LINE
  8
0010010008
 10
53.7748094264803
 20
14.8235948309078
 11
53.8263779001062
 21
14.9601681744782
  0
ARC
  8
0010010008
 10
54.28858693825
 20
15.4118536805472
 40
0.781035086138395
 50
228.866466322592
 51
238.500757456413
  0
ARC
  8
0010010008
 10
54.4475858767965
 20
14.4387071551617
 40
0.644942577942634
 50
151.55465010419
 51
214.482748109183
  0
LINE
  8
0010010008
 10
53.9159618397343
 20
14.0735677132206
 11
53.8345092820771
 21
14.0342037207765
  0
ARC
  8
0010010008
 10
54.6434333675499
 20
14.0734848525912
 40
0.809877264389302
 50
182.780083528053
 51
230.672946952525
  0
LINE
  8
0010010008
 10
54.1301767432888
 20
13.4470115323079
 11
54.0771396136319
 21
13.3931047027116
  0
ARC
  8
0010010008
 10
54.8602123867407
 20
13.747262848757
 40
0.859436420216561
 50
204.335680332681
 51
217.151439547678
  0
ARC
  8
0010010008
 10
54.111680380243
 20
12.7656999300361
 40
0.466870779575372
 50
82.1797590571918
 51
138.209055936808
  0
LINE
  8
0010010008
 10
53.7635902389078
 20
13.0768294502148
 11
53.7652431625519
 21
13.0299355290082
  0
ARC
  8
0010010008
 10
53.8346575564241
 20
12.7502062519444
 40
0.288213161606541
 50
103.936355821936
 51
160.230322748874
  0
ARC
  8
0010010008
 10
53.4417636553613
 20
12.9496260716025
 40
0.158725489927954
 50
243.481431640757
 51
320.043412662944
  0
ARC
  8
0010010008
 10
53.8796547955707
 20
12.7380816924176
 40
0.51348777210664
 50
172.21912789784
 51
265.841955505733
  0
LINE
  8
0010010008
 10
53.8424228846034
 20
12.2259455026118
 11
53.8400876551921
 21
12.1278800857592
  0
ARC
  8
0010010008
 10
54.095289854242
 20
12.5145002731671
 40
0.463252988885434
 50
236.571795236514
 51
265.221933272699
  0
LINE
  8
0010010008
 10
54.0567025609742
 20
12.0528571723744
 11
54.0698397415679
 21
11.9783722228227
  0
ARC
  8
0010010008
 10
54.19030743626
 20
11.6592826079609
 40
0.341072789558331
 50
110.683307831916
 51
163.608447900933
  0
ARC
  8
0010010008
 10
53.8524683605436
 20
11.7600031909559
 40
0.0115306039663338
 50
251.506237105487
 51
337.191645171046
  0
LINE
  8
0010010008
 10
53.8488108365703
 20
11.7490680482402
 11
53.7091285660264
 21
11.726625210431
  0
ARC
  8
0010010008
 10
54.345173660819
 20
11.8563337059108
 40
0.649136084661319
 50
191.526264244456
 51
257.201828295383
  0
LINE
  8
0010010008
 10
54.2013787356198
 20
11.223324483311
 11
54.1667397009257
 21
11.103022504925
  0
ARC
  8
0010010008
 10
54.5155612221051
 20
11.5610920229726
 40
0.575763959450599
 50
232.710602552396
 51
304.300609957069
  0
LINE
  8
0010010008
 10
54.8400242748001
 20
11.0854578521669
 11
54.9146917115061
 21
11.0060062031756
  0
ARC
  8
0010010008
 10
54.4741036222396
 20
11.60925997799
 40
0.747016051521861
 50
306.142629020379
 51
338.658581688216
  0
ARC
  8
0010010008
 10
56.3185409075687
 20
14.1932388792452
 40
0.336856492087472
 50
84.8910551570889
 51
91.9176481865233
  0
ARC
  8
0010010010
 10
71.6785017849162
 20
10.6482002892462
 40
15.8134915054881
 50
164.495760488342
 51
165.794802884835
  0
ARC
  8
0010010008
 10
57.0776528444961
 20
15.0208701067742
 40
0.653616864473189
 50
173.612657726709
 51
192.86856803996
  0
LINE
  8
0010010008
 10
56.4280932932997
 20
15.0935845824537
 11
56.5170678930902
 21
15.1277627863036
  0
ARC
  8
0010010008
 10
57.2589852839475
 20
15.4155550836572
 40
0.795780008088009
 50
185.759180823368
 51
201.201443671336
  0
ARC
  8
0010010008
 10
56.0906043879633
 20
15.6235032444961
 40
0.47399496068167
 50
299.669582371028
 51
322.613754079772
  0
ARC
  8
0010010008
 10
58.3623205905201
 20
16.9800300279992
 40
0.717529554541607
 50
280.840701998083
 51
310.186090297383
  0
ARC
  8
0010010008
 10
57.7222639179947
 20
15.5914614923093
 40
1.03357710634143
 50
19.6957943915771
 51
41.4241916434067
  0
ARC
  8
0010010008
 10
58.4830488327705
 20
15.1801826608832
 40
0.78873675636907
 50
57.6715947289708
 51
74.3837000824981
  0
ARC
  8
0010010008
 10
58.911158929172
 20
15.6211551205751
 40
0.225596027774739
 50
91.6043896855869
 51
199.313348109036
  0
ARC
  8
0010010008
 10
58.3347709877403
 20
15.4785354515189
 40
0.369794825090435
 50
343.678461829767
 51
10.5973323442343
  0
LINE
  8
0010010008
 10
58.6896629771651
 20
15.374612939493
 11
58.7402207543647
 21
15.3683233508923
  0
ARC
  8
0010010008
 10
58.2257451428124
 20
15.2301171856661
 40
0.532715776928649
 50
303.011735106855
 51
15.0366563665708
  0
LINE
  8
0010010008
 10
58.5159744497904
 20
14.7834035767847
 11
58.5836197082228
 21
14.6562174537324
  0
ARC
  8
0010010008
 10
58.4438817135515
 20
14.3077829081336
 40
0.37541089451602
 50
44.5293480169791
 51
68.1469846962834
  0
LINE
  8
0010010008
 10
58.7115088877642
 20
14.5710490004137
 11
58.7118445388003
 21
14.5274127480524
  0
ARC
  8
0010010008
 10
58.6722196603417
 20
14.2223251749761
 40
0.30765005808301
 50
17.2521861972235
 51
82.599829910343
  0
ARC
  8
0010010008
 10
59.0028058002982
 20
14.3406177577774
 40
0.04565433813655
 50
216.334841502663
 51
276.601011009978
  0
LINE
  8
0010010008
 10
59.008053980083
 20
14.2952660742405
 11
59.1299184369952
 21
14.2505813676801
  0
ARC
  8
0010010008
 10
58.5642573950572
 20
14.4084350083871
 40
0.587273519112581
 50
287.569386943254
 51
344.407682855413
  0
LINE
  8
0010010008
 10
58.7415321079064
 20
13.8485565729789
 11
58.7632211775734
 21
13.7997961073074
  0
ARC
  8
0010010008
 10
58.284192402074
 20
14.1258838711404
 40
0.579484078709753
 50
271.318644797641
 51
325.755828852252
  0
LINE
  8
0010010008
 10
58.2975278731464
 20
13.5465532550935
 11
58.2975278731464
 21
13.5287089352101
  0
ARC
  8
0010010008
 10
58.1938037672139
 20
13.086913951449
 40
0.453807776297347
 50
47.7277285873741
 51
76.7874587389819
  0
LINE
  8
0010010008
 10
58.4990596039192
 20
13.4227120633931
 11
58.4932330630412
 21
13.360434895287
  0
ARC
  8
0010010008
 10
58.3908095490754
 20
13.151078001106
 40
0.233068413463188
 50
9.90464155293277
 51
63.9307679688009
  0
ARC
  8
0010010008
 10
58.638580564204
 20
13.2117743701781
 40
0.0274774499581497
 50
228.585457980867
 51
275.146825119491
  0
LINE
  8
0010010008
 10
58.6410455190925
 20
13.1844077069982
 11
58.7671569242385
 21
13.1894397283979
  0
ARC
  8
0010010008
 10
58.1904950641818
 20
13.275950533673
 40
0.583114928872038
 50
282.839088596005
 51
351.468114370839
  0
LINE
  8
0010010008
 10
58.3200711999565
 20
12.707414655024
 11
58.3227330391301
 21
12.5744529139614
  0
ARC
  8
0010010008
 10
58.0276441734102
 20
13.384884148834
 40
0.862482594102024
 50
257.72744741652
 51
290.007242497876
  0
LINE
  8
0010010008
 10
57.8443128805916
 20
12.5421114260894
 11
57.821389527426
 21
12.4430077715487
  0
ARC
  8
0010010008
 10
57.8614914304358
 20
13.0700290747463
 40
0.628302377274448
 50
189.553608130131
 51
266.340563463798
  0
ARC
  8
0010010008
 10
57.1454698450205
 20
12.9213402207131
 40
0.106167630006573
 50
24.7269345586227
 51
94.4263283751798
  0
ARC
  8
0010010008
 10
58.7956184759365
 20
12.24260720033
 40
1.83457662469266
 50
154.68054134249
 51
171.276942716343
  0
ARC
  8
0010010008
 10
55.9612436249039
 20
12.2551593241268
 40
1.05501846220337
 50
344.203748496227
 51
14.5853743650475
  0
LINE
  8
0010010008
 10
56.8344076566627
 20
12.0432659072572
 11
56.9764201641977
 21
11.9679650524961
  0
ARC
  8
0010010008
 10
56.8093131260474
 20
12.0284188065743
 40
0.0291577067941061
 50
30.6105485679426
 51
86.6642592770957
  0
ARC
  8
0010010008
 10
57.5315541266297
 20
18.8234167830683
 40
0.381798117412017
 50
231.692164895371
 51
264.955573447962
  0
ARC
  8
0010010003
 10
56.8584265857019
 20
18.7393119087608
 40
0.486753939165039
 50
261.904773323106
 51
333.723335501434
  0
ARC
  8
0010010003
 10
58.7772063991007
 20
17.2917706032679
 40
0.384477557621664
 50
45.3620432799777
 51
84.3461090017299
  0
ARC
  8
0010010008
 10
58.0086591762475
 20
17.9458237635411
 40
0.850884893002273
 50
324.5603767524
 51
341.396564055482
  0
ARC
  8
0010010008
 10
57.6575347378802
 20
17.3988498347204
 40
1.04573751704156
 50
301.428421795617
 51
2.93762715245478
  0
ARC
  8
0010010008
 10
57.7222639179947
 20
15.5914614923093
 40
1.03357710634143
 50
47.6278408106795
 51
62.2935667712917
  0
ARC
  8
0010010003
 10
58.3623205905201
 20
16.9800300279992
 40
0.627529554541604
 50
275.167111120549
 51
310.103143950375
  0
ARC
  8
0010010008
 10
59.2482448155254
 20
15.9525806693522
 40
0.729204880412466
 50
98.3168091768727
 51
131.343401012677
  0
ARC
  8
0010010008
 10
58.7759320538621
 20
19.0135605117087
 40
0.407468450332391
 50
263.612486480812
 51
287.904282598605
  0
ARC
  8
0010010008
 10
62.0811251400443
 20
19.2551157200507
 40
3.24159464213034
 50
191.193901056981
 51
201.46895826208
  0
ARC
  8
0010010008
 10
58.3349090538673
 20
17.8012949258486
 40
0.777000284761935
 50
348.279658586337
 51
20.1300694159215
  0
ARC
  8
0010010008
 10
58.7772063991007
 20
17.2917706032679
 40
0.474477557621664
 50
46.4903543312099
 51
47.8347554994037
  0
ARC
  8
0010010008
 10
59.1899925591139
 20
17.7734712813551
 40
0.162312381335783
 50
237.955464183558
 51
307.331908445032
  0
ARC
  8
0010010008
 10
59.4678329148477
 20
17.2235169562467
 40
0.457536122721003
 50
87.6509035607228
 51
113.086473881681
  0
ARC
  8
0010010008
 10
62.0992440834224
 20
16.487094422288
 40
2.87238567473194
 50
155.447044956889
 51
177.917183945361
  0
ARC
  8
0010010008
 10
59.2482448155254
 20
15.9525806693522
 40
0.639204880412467
 50
91.747163189279
 51
131.424925753784
  0
ARC
  8
0010010008
 10
57.6471458552759
 20
17.1004515013231
 40
0.323452255309387
 50
8.72724019039487
 51
50.1886542431135
  0
ARC
  8
0010010008
 10
57.5228414367925
 20
17.0639778785462
 40
0.452178515759063
 50
296.379142133014
 51
10.9059853552659
  0
ARC
  8
0010010008
 10
58.2866863750486
 20
18.1934835722173
 40
1.6345940511741
 50
245.016008270266
 51
249.855433669289
  0
ARC
  8
0010010008
 10
60.4637162829386
 20
20.5581470619596
 40
4.79751653247595
 50
229.069507299437
 51
233.295400996467
  0
ARC
  8
0010010003
 10
58.2517956011577
 20
17.1635433693338
 40
0.959110623627476
 50
122.28326002238
 51
193.871590775914
  0
ARC
  8
0010010008
 10
58.5946145093777
 20
17.6999151338743
 40
0.89805809861484
 50
162.203658739165
 51
173.469361785752
  0
ARC
  8
0010010008
 10
57.7102478677586
 20
17.6122697660759
 40
0.189948417094524
 50
316.070060780926
 51
92.3728003217292
  0
ARC
  8
0010010008
 10
57.9111702296507
 20
17.4180097382963
 40
0.0895284193262179
 50
135.744754647987
 51
230.513960376056
  0
ARC
  8
0010010008
 10
58.2420164729927
 20
17.9219859974651
 40
0.628374418537457
 50
15.7510786465979
 51
84.8290037408459
  0
ARC
  8
0010010008
 10
59.1261805010065
 20
17.6487447829583
 40
0.57237103117828
 50
189.869403565764
 51
206.34644169514
  0
ARC
  8
0010010008
 10
58.3931017783824
 20
17.5731948941274
 40
0.170675279594857
 50
352.40564313581
 51
61.9392421676204
  0
ARC
  8
0010010008
 10
58.5205689168535
 20
17.5317786476449
 40
0.197739533053591
 50
103.803787999578
 51
161.878976588897
  0
ARC
  8
0010010008
 10
58.9569171167523
 20
17.3956481889049
 40
0.654816252757928
 50
162.433436908773
 51
173.517480152474
  0
ARC
  8
0010010008
 10
51.9547575831604
 20
16.5184599663099
 40
6.42234819247364
 50
7.91024336363564
 51
8.51653950059145
  0
ARC
  8
0010010003
 10
57.9533050820947
 20
18.2202569139336
 40
0.439381891890464
 50
76.8559033621974
 51
137.67036964697
  0
ARC
  8
0010010008
 10
57.5103861167582
 20
18.119351105406
 40
0.41398382327967
 50
20.7577125706824
 51
73.4258405421429
  0
ARC
  8
0010010008
 10
58.5946145093777
 20
17.6999151338743
 40
0.89805809861484
 50
109.242044610744
 51
140.918468461708
  0
ARC
  8
0010010008
 10
56.552059380514
 20
16.3003250241422
 40
0.986279268201907
 50
50.6815357722409
 51
69.6141023953558
  0
ARC
  8
0010010008
 10
60.4637162829386
 20
20.5581470619596
 40
4.79751653247595
 50
226.757479170451
 51
227.31254760418
  0
ARC
  8
0010010008
 10
58.2517956011577
 20
17.1635433693338
 40
1.04911062362748
 50
115.841923697436
 51
187.221205932974
  0
ARC
  8
0010010008
 10
58.5946145093777
 20
17.6999151338743
 40
0.89805809861484
 50
148.342611242869
 51
152.991548684443
  0
ARC
  8
0010010003
 10
57.5103861167582
 20
18.119351105406
 40
0.32398382327967
 50
9.21805932296763
 51
92.1939412032868
  0
ARC
  8
0010010008
 10
54.4632248005526
 20
21.3711473258182
 40
0.733397662626817
 50
287.298598312733
 51
355.198169257098
  0
ARC
  8
0010010008
 10
55.7082576135153
 20
22.2649861376328
 40
1.08484006931747
 50
241.706036972169
 51
265.029376512655
  0
ARC
  8
0010010008
 10
55.5511879430297
 20
20.6299550332336
 40
0.557848066131511
 50
80.334131111064
 51
83.5079031979279
  0
ARC
  8
0010010008
 10
54.5718112071537
 20
20.4165336052609
 40
0.149498177178725
 50
250.506776660171
 51
331.675571919192
  0
ARC
  8
0010010008
 10
54.8988416087402
 20
20.1356792409141
 40
0.286811542817119
 50
94.6604829466458
 51
132.952455080056
  0
ARC
  8
0010010008
 10
54.0282718231674
 20
19.9619605654609
 40
0.963885506797997
 50
28.4767014771681
 51
47.3516140102236
  0
ARC
  8
0010010008
 10
54.679351576651
 20
18.7558129006991
 40
0.548076697021358
 50
28.8063525525846
 51
111.621480086762
  0
ARC
  8
0010010008
 10
54.1611172672287
 20
18.1996615066585
 40
1.29219844527502
 50
24.8590897208451
 51
39.4025720092313
  0
ARC
  8
0010010008
 10
55.7664633035432
 20
18.4246772968118
 40
0.537251773941562
 50
143.680297190934
 51
190.005115750952
  0
ARC
  8
0010010008
 10
54.473865998422
 20
18.4584575707726
 40
0.774025929452091
 50
332.176849399092
 51
350.547341328718
  0
ARC
  8
0010010008
 10
56.0858274716543
 20
18.2631789678643
 40
0.211752228290086
 50
104.086624971759
 51
190.57485643691
  0
ARC
  8
0010010008
 10
55.7738807210736
 20
18.2078142563258
 40
0.368514420939355
 50
40.6121130673787
 51
45.0374493317924
  0
ARC
  8
0010010010
 10
58.6512634638112
 20
17.4480012362112
 40
2.78335602028961
 50
158.950903559332
 51
179.136983951984
  0
ARC
  8
0010010008
 10
55.837230419682
 20
19.4075227561603
 40
0.496032865328988
 50
33.7836927080295
 51
62.2920030395394
  0
ARC
  8
0010010008
 10
55.8854926282093
 20
19.4520039924448
 40
0.431304946828631
 50
308.220043993056
 51
32.4373900434874
  0
ARC
  8
0010010008
 10
56.1908232270325
 20
19.6189501590894
 40
0.507259147656473
 50
227.931202116886
 51
265.648369988129
  0
ARC
  8
0010010008
 10
52.9788391720445
 20
16.6572969490483
 40
3.86415857208088
 50
41.9893715501738
 51
46.077007319306
  0
ARC
  8
0010010003
 10
56.5711347263472
 20
19.841953251733
 40
0.996213650054765
 50
136.398196429938
 51
203.761704524512
  0
ARC
  8
0010010008
 10
58.7532652477365
 20
20.0571977053317
 40
2.94161862714975
 50
170.770851916207
 51
177.922223350696
  0
ARC
  8
0010010008
 10
55.9141334363477
 20
20.0581839738137
 40
0.145863046082327
 50
326.018592862492
 51
133.579818447805
  0
ARC
  8
0010010008
 10
56.1131003230655
 20
19.9272081620934
 40
0.0923661717929312
 50
147.631433533288
 51
240.679162368741
  0
ARC
  8
0010010008
 10
56.5109121047469
 20
20.2760400070995
 40
0.172068575182939
 50
334.436116559253
 51
61.3436549178579
  0
ARC
  8
0010010008
 10
57.1032410474676
 20
20.0766199291645
 40
0.454673787885719
 50
164.020390656869
 51
183.693033112433
  0
ARC
  8
0010010008
 10
56.4694652691971
 20
17.6293186733095
 40
1.50523661815655
 50
82.8404883491681
 51
84.9070940675787
  0
ARC
  8
0010010008
 10
55.6396874252321
 20
19.4980675045727
 40
1.03181140990013
 50
339.018636798206
 51
22.2402695618319
  0
ARC
  8
0010010008
 10
60.7725970776876
 20
22.2309790806766
 40
4.78970331425841
 50
203.783839384592
 51
209.277822505928
  0
ARC
  8
0010010008
 10
56.599933293842
 20
20.1902211601251
 40
0.236900374535662
 50
91.5734315501276
 51
152.569940004714
  0
ARC
  8
0010010003
 10
58.7156969892003
 20
20.4166742469421
 40
0.25986912420523
 50
306.166983976276
 51
16.8062714457439
  0
ARC
  8
0010010003
 10
58.7683788520309
 20
20.7102438645012
 40
0.513331614112641
 50
281.310483114967
 51
32.411785683217
  0
ARC
  8
0010010008
 10
58.7898037159663
 20
20.8538925741763
 40
0.432417713037549
 50
343.591860849598
 51
17.7038932087013
  0
ARC
  8
0010010008
 10
59.009429597524
 20
20.8412289564982
 40
0.223791384258187
 50
211.943068795156
 51
330.710222072644
  0
ARC
  8
0010010008
 10
58.9717206372759
 20
20.9186757696275
 40
0.248032763199156
 50
194.27470462856
 51
232.149227854207
  0
ARC
  8
0010010008
 10
59.5517501022227
 20
20.5969672491394
 40
0.860784330579042
 50
162.380758756194
 51
182.156633498112
  0
LINE
  8
0010010008
 10
58.7271425341326
 20
20.5645746713112
 11
58.6915754777004
 21
20.5645746713112
  0
ARC
  8
0010010008
 10
58.8259366560185
 20
20.4633919276304
 40
0.141415084548915
 50
11.5936049237472
 51
134.315663642814
  0
LINE
  8
0010010008
 10
55.721997801597
 20
21.7795311297461
 11
55.8066110467133
 21
21.8967940331797
  0
ARC
  8
0010010008
 10
56.0273497174126
 20
22.3541521331218
 40
0.50784051859288
 50
176.829762945975
 51
244.236249817274
  0
LINE
  8
0010010008
 10
55.5202863844468
 20
22.3822371591372
 11
55.6248914386613
 21
22.4646671686682
  0
ARC
  8
0010010008
 10
56.1447888016223
 20
22.701329664579
 40
0.571228855174978
 50
121.357649626843
 51
204.475504307115
  0
ARC
  8
0010010008
 10
56.0046199085743
 20
23.1549690876379
 40
0.16075625543418
 50
167.733811803637
 51
280.700051444724
  0
ARC
  8
0010010008
 10
55.8799747020648
 20
22.4019289569087
 40
0.614806415108212
 50
57.3262776767202
 51
75.44635922007
  0
LINE
  8
0010010008
 10
56.2118806011745
 20
22.9194474611135
 11
56.3155911880412
 21
23.0317587928884
  0
ARC
  8
0010010008
 10
56.0649701149876
 20
22.4801524462948
 40
0.605871672766483
 50
22.5007288117844
 51
65.5654364229478
  0
ARC
  8
0010010008
 10
57.484678854284
 20
22.7678858295871
 40
0.861772175158828
 50
159.448186812996
 51
183.717127034157
  0
LINE
  8
0010010008
 10
56.6777540744084
 20
23.0704146406129
 11
56.7584045420739
 21
23.0601257410311
  0
ARC
  8
0010010008
 10
57.8134942980004
 20
23.0686187848537
 40
1.05512393814868
 50
130.630622729398
 51
180.461197783119
  0
LINE
  8
0010010008
 10
57.1264187657094
 20
23.8693770116497
 11
57.2227145659819
 21
23.8025477315556
  0
ARC
  8
0010010008
 10
57.7527241825606
 20
23.3439374392564
 40
0.700880584599628
 50
65.7886876292846
 51
139.130798436118
  0
ARC
  8
0010010008
 10
58.303546245442
 20
23.6780397620891
 40
0.403084191828621
 50
130.800983399131
 51
196.856724038533
  0
ARC
  8
0010010008
 10
57.0407924566269
 20
23.5314467567674
 40
0.877491960696555
 50
347.562012445226
 51
1.94007976701652
  0
LINE
  8
0010010008
 10
57.8976894111443
 20
23.3424500625477
 11
57.9968864453557
 21
23.3147914972225
  0
ARC
  8
0010010008
 10
57.2318966316217
 20
23.2577478087727
 40
0.767113679651749
 50
321.682515648682
 51
4.26453384914451
  0
LINE
  8
0010010008
 10
57.833764207568
 20
22.7821231473712
 11
57.8988448410621
 21
22.7290689671092
  0
ARC
  8
0010010008
 10
57.0463552618147
 20
22.9736703234688
 40
0.886886862152315
 50
322.112037365824
 51
343.990442519383
  0
ARC
  8
0010010008
 10
57.9796651175882
 20
21.9251642806237
 40
0.555271690229119
 50
85.4218104185695
 51
114.851984193682
  0
LINE
  8
0010010008
 10
58.0239866157585
 20
22.4786642849325
 11
58.0448151221925
 21
22.4406068872703
  0
ARC
  8
0010010008
 10
58.1628487853794
 20
22.088664759329
 40
0.371207768056054
 50
66.9655903740871
 51
108.540322133999
  0
ARC
  8
0010010008
 10
58.3116682921468
 20
22.4644145371629
 40
0.0343247486367328
 50
264.02688986291
 51
342.82227002291
  0
ARC
  8
0010010008
 10
57.4001905038476
 20
23.4924725401837
 40
1.4033880879223
 50
312.287508435016
 51
320.263990400148
  0
ARC
  8
0010010008
 10
57.760255847397
 20
22.3263118036704
 40
0.76781674183765
 50
310.180572605552
 51
20.5117958502439
  0
LINE
  8
0010010008
 10
58.255650187097
 20
21.7396884174681
 11
58.2981048197219
 21
21.622439818725
  0
ARC
  8
0010010008
 10
57.8013854166948
 20
21.8355582649706
 40
0.540508683994808
 50
275.274863451883
 51
336.778152135991
  0
LINE
  8
0010010008
 10
57.8510764008063
 20
21.2973385667322
 11
57.8322113987441
 21
21.1431794193251
  0
ARC
  8
0010010008
 10
57.7307985445432
 20
21.8626887199986
 40
0.72662108471523
 50
224.937175549968
 51
278.022833332988
  0
ARC
  8
0010010008
 10
56.9720766473809
 20
21.128938318263
 40
0.329148769142989
 50
42.0637154461013
 51
64.3831169065435
  0
ARC
  8
0010010008
 10
58.4410130623913
 20
22.0138433477811
 40
1.45114310437919
 50
203.908268872955
 51
220.143080350199
  0
ARC
  8
0010010008
 10
56.9640419275032
 20
20.7824363904507
 40
0.471919581519632
 50
342.845905386877
 51
38.8234402241186
  0
ARC
  8
0010010008
 10
55.6727427697694
 20
14.725000726829
 40
0.219864414612596
 50
107.043270436961
 51
149.49299842169
  0
ARC
  8
0010010010
 10
61.6560743624813
 20
14.1541684821433
 40
6.09799780702482
 50
172.641253422002
 51
180.767086864518
  0
ARC
  8
0010010008
 10
55.6933714505621
 20
13.81174242887
 40
0.293542433155659
 50
117.325325210786
 51
137.434443274589
  0
ARC
  8
0010010010
 10
69.7147337015177
 20
11.3184903606794
 40
13.9440129068329
 50
163.787566354921
 51
166.620221834882
  0
ARC
  8
0010010008
 10
56.2495703664116
 20
14.758134521338
 40
0.235408209150667
 50
244.761313933419
 51
284.187681081691
  0
ARC
  8
0010010008
 10
56.9401744772616
 20
16.1518773051049
 40
0.47956728639909
 50
213.521442596708
 51
240.64890172949
  0
ARC
  8
0010010010
 10
69.7147337015177
 20
11.3184903606794
 40
13.9440129068329
 50
158.295360278526
 51
160.874708934934
  0
ARC
  8
0010010008
 10
54.6863036359443
 20
15.4115837663524
 40
2.3299897445018
 50
20.0347468956677
 51
27.1633943766946
  0
ARC
  8
0010010010
 10
71.6785017849162
 20
10.6482002892462
 40
15.8134915054881
 50
159.408632846716
 51
161.240088340851
  0
ARC
  8
0010010003
 10
57.6575347378802
 20
17.3988498347204
 40
0.955737517041563
 50
299.114384706017
 51
359.75288829241
  0
ARC
  8
0010010008
 10
57.4650035366751
 20
17.1571146904922
 40
0.88561358632826
 50
317.943050111308
 51
16.0734481767286
  0
ARC
  8
0010010010
 10
54.473865998422
 20
18.4584575707726
 40
0.864025929452088
 50
330.092292833733
 51
351.646032385264
  0
ARC
  8
0010010010
 10
55.7664633035432
 20
18.4246772968118
 40
0.447251773941564
 50
150.977894376918
 51
191.838120684501
  0
ARC
  8
0010010008
 10
54.1611172672287
 20
18.1996615066585
 40
1.29219844527502
 50
17.0868993843728
 51
20.0019233287093
  0
ARC
  8
0010010008
 10
55.8824624439825
 20
18.7346998926096
 40
0.510404174574749
 50
197.721517691272
 51
243.009447767794
  0
ARC
  8
0010010008
 10
55.2555833527537
 20
18.4612931641783
 40
0.43487791134348
 50
265.680519963671
 51
335.345851986357
  0
ARC
  8
0010010008
 10
55.9120224922703
 20
16.9545634952191
 40
0.540833000903743
 50
94.8682834347506
 51
116.867560006027
  0
ARC
  8
0010010010
 10
65.7344077473276
 20
16.0323017284463
 40
10.1643375917369
 50
167.516482118141
 51
172.056285489796
  0
ARC
  8
0010010008
 10
55.8824624439825
 20
18.7346998926096
 40
0.510404174574749
 50
261.880409349728
 51
269.462197884574
  0
ARC
  8
0010010008
 10
57.9533050820947
 20
18.2202569139336
 40
0.529381891890464
 50
108.477192819647
 51
139.098082245607
  0
ARC
  8
0010010010
 10
40.077329206788
 20
26.9275747824245
 40
19.5168155509283
 50
335.13900307061
 51
336.196104517122
  0
ARC
  8
0010010008
 10
57.709450486872
 20
19.5493276511685
 40
0.547048104560675
 50
274.904573672776
 51
294.222354014614
  0
ARC
  8
0010010010
 10
73.2998005807292
 20
10.9333500982363
 40
17.5140746898415
 50
152.559610721566
 51
154.03788358186
  0
LINE
  8
0010010008
 10
57.5531815441775
 20
18.6006052237069
 11
57.5531815441775
 21
18.5668782373777
  0
ARC
  8
0010010008
 10
57.9361563957051
 20
19.8511238472632
 40
0.800085273868889
 50
329.954990640747
 51
0.498191251065607
  0
ARC
  8
0010010008
 10
53.9786404972972
 20
19.8989612319108
 40
4.75774656315467
 50
359.50768319118
 51
2.51845991138831
  0
ARC
  8
0010010008
 10
58.7683788520309
 20
20.7102438645012
 40
0.603331614112636
 50
266.523337536483
 51
312.877562728167
  0
ARC
  8
0010010003
 10
58.4052694223703
 20
20.1948149381426
 40
0.777101646855695
 50
286.712188941057
 51
5.41259852193969
  0
ARC
  8
0010010008
 10
58.964822281026
 20
19.0793340030599
 40
0.525766283197537
 50
165.189164231277
 51
243.54549785049
  0
ARC
  8
0010010008
 10
58.1866115411236
 20
19.3530602988195
 40
0.3037508829426
 50
332.697836869739
 51
356.007461648577
  0
ARC
  8
0010010008
 10
58.4650657901255
 20
19.7304689460703
 40
0.399313747065231
 50
273.526156045453
 51
280.795675908089
  0
ARC
  8
0010010008
 10
58.4052694223703
 20
20.1948149381426
 40
0.867101646855697
 50
278.929501069249
 51
10.7493278635594
  0
ARC
  8
0010010008
 10
58.7683788520309
 20
20.7102438645012
 40
0.603331614112636
 50
324.108599864973
 51
64.0937636796765
  0
ARC
  8
0010010008
 10
58.8254213488971
 20
20.8136665363314
 40
0.485418656909697
 50
64.816736624053
 51
122.618335622753
  0
ARC
  8
0010010008
 10
61.5508136377467
 20
18.2924119931134
 40
4.18426154576602
 50
135.551327796399
 51
145.668772263437
  0
ARC
  8
0010010008
 10
58.6731661082977
 20
20.0457002213094
 40
0.837614258354701
 50
133.604059969671
 51
193.746435277676
  0
ARC
  8
0010010008
 10
59.2652578863754
 20
20.3479527531503
 40
1.49242248961536
 50
171.73447868763
 51
199.626716955085
  0
ARC
  8
0010010008
 10
57.6653949964042
 20
20.897630702605
 40
0.356965775155094
 50
225.449069407035
 51
290.145850515244
  0
ARC
  8
0010010008
 10
57.709450486872
 20
19.5493276511685
 40
0.547048104560675
 50
323.247006704133
 51
342.154754405144
  0
ARC
  8
0010010010
 10
58.6071184284072
 20
19.2286453004904
 40
0.459408836474721
 50
180.829752569476
 51
244.468186061406
  0
ARC
  8
0010010008
 10
58.0358648386757
 20
19.8719094559705
 40
0.370969710393653
 50
288.837741173173
 51
19.2286769866999
  0
ARC
  8
0010010003
 10
58.4069711071212
 20
19.8770869397842
 40
0.436001185984238
 50
201.152923632789
 51
234.800163153176
  0
ARC
  8
0010010008
 10
58.6731661082977
 20
20.0457002213094
 40
0.747614258354702
 50
124.735637163179
 51
205.84793442378
  0
ARC
  8
0010010008
 10
58.1170759484286
 20
20.4767898447355
 40
0.224774776270458
 50
308.900512770625
 51
54.6316855737341
  0
LINE
  8
0010010008
 10
58.2582277697494
 20
20.3018616783778
 11
58.2053634684165
 21
20.1761907799513
  0
ARC
  8
0010010008
 10
58.1645800214727
 20
19.9549252878174
 40
0.224992683334064
 50
10.0231424828825
 51
79.5565104784012
  0
ARC
  8
0010010008
 10
55.0787611079529
 20
19.1385550928336
 40
0.614577894320267
 50
127.23288667845
 51
168.095958034318
  0
ARC
  8
0010010008
 10
55.1982851681793
 20
20.2587426303345
 40
0.799656835439389
 50
177.70454118418
 51
232.085391095597
  0
ARC
  8
0010010008
 10
54.4304043071369
 20
20.039011376203
 40
0.253677423292023
 50
68.8523029789124
 51
97.0497937077884
  0
ARC
  8
0010010008
 10
55.0787611079529
 20
19.1385550928336
 40
0.614577894320267
 50
53.3335585062507
 51
82.0113954958459
  0
ARC
  8
0010010008
 10
56.5711347263472
 20
19.841953251733
 40
1.08621365005476
 50
129.655264522916
 51
194.585863068014
  0
ARC
  8
0010010008
 10
52.9788391720445
 20
16.6572969490483
 40
3.86415857208088
 50
48.8825460334899
 51
50.3265831913208
  0
ARC
  8
0010010008
 10
56.7221824220033
 20
19.8318464854534
 40
0.889787735039154
 50
290.283402994966
 51
321.716313164761
  0
ARC
  8
0010010008
 10
56.2980697239187
 20
17.6165528134437
 40
1.56299143742701
 50
44.3359074291255
 51
62.0502243835319
  0
ARC
  8
0010010008
 10
56.5852426250671
 20
20.5954437304899
 40
0.551864844598468
 50
276.687696855908
 51
302.812983872622
  0
ARC
  8
0010010003
 10
56.0389643189033
 20
19.7920422275366
 40
0.910993714816421
 50
312.725900384691
 51
21.8864826545647
  0
LINE
  8
0030010003
 10
56.3924274784764
 20
22.0088304721988
 11
56.4631049556934
 21
22.046309722648
  0
ARC
  8
0030010003
 10
55.9703817799699
 20
21.7850257035766
 40
0.55771450269583
 50
27.9363646324312
 51
53.8781909794671
  0
ARC
  8
0030010003
 10
56.9752783732076
 20
23.1619816465496
 40
1.14693350554209
 50
211.074877097601
 51
233.878190979467
  0
LINE
  8
0030010003
 10
55.974630970704
 20
22.5619282163751
 11
55.9929372917297
 21
22.5699829423484
  0
ARC
  8
0030010003
 10
56.6966604327772
 20
22.7802064156689
 40
0.754302271233886
 50
196.820698974694
 51
233.878190979467
  0
ARC
  8
0030010003
 10
55.9703817799699
 20
21.7850257035766
 40
0.47771450269583
 50
27.9363646324312
 51
53.8781909794671
  0
LINE
  8
0030010003
 10
57.1043028784824
 20
22.5515386015206
 11
57.182728497494
 21
22.5357454928127
  0
ARC
  8
0030010003
 10
59.3606723128701
 20
22.0971579002713
 40
2.30166566775168
 50
147.173319310215
 51
168.61423087335
  0
LINE
  8
0030010003
 10
57.426549836637
 20
23.3448898799194
 11
57.4440662398361
 21
23.3352371280337
  0
ARC
  8
0030010003
 10
60.7082130665252
 20
21.8257943091517
 40
3.59625807328377
 50
155.182713525478
 51
168.61423087335
  0
LINE
  8
0030010003
 10
57.3732210750981
 20
21.6526646692535
 11
57.3623695216523
 21
21.7319252760378
  0
ARC
  8
0030010003
 10
57.2092635313544
 20
22.8502235688975
 40
1.12873048868093
 50
277.795885103754
 51
308.531094848321
  0
LINE
  8
0030010003
 10
57.9262860285275
 20
21.9528633722454
 11
57.9123940805342
 21
21.9672513457285
  0
ARC
  8
0030010003
 10
57.252460631605
 20
22.5347085235828
 40
0.890272118889821
 50
277.795885103754
 51
319.189541575638
  0
LINE
  8
0030010003
 10
54.6098194990944
 20
16.245364575395
 11
54.5725273737996
 21
16.1745881853274
  0
ARC
  8
0030010003
 10
53.8044742879632
 20
14.7169071235469
 40
1.64764669165943
 50
62.215225077246
 51
82.3482552735201
  0
LINE
  8
0030010003
 10
54.0245007527905
 20
16.3698724271641
 11
54.0238609471775
 21
16.3498826635643
  0
ARC
  8
0030010003
 10
54.0968060299539
 20
15.2717209143061
 40
1.10052932641433
 50
62.215225077246
 51
93.7670722144725
  0
LINE
  8
0030010003
 10
54.9294077922169
 20
16.9706406883001
 11
54.8513994696178
 21
16.9529008572617
  0
ARC
  8
0030010003
 10
40.3199392359884
 20
13.6483092355329
 40
14.9024716845211
 50
12.811715632634
 51
16.8228908983244
  0
LINE
  8
0030010003
 10
54.6034243434882
 20
17.9681740693717
 11
54.5846439480381
 21
17.961296806345
  0
ARC
  8
0030010003
 10
49.374664237925
 20
15.707439419106
 40
5.69656505276999
 50
12.811715632634
 51
23.3819825477249
  0
LINE
  8
0030010003
 10
55.4855756180037
 20
16.5265221440049
 11
55.5630980127531
 21
16.5067666811573
  0
ARC
  8
0030010003
 10
56.1289159484515
 20
16.3625761508805
 40
0.663901400391801
 50
109.744447521528
 51
165.703294998907
  0
LINE
  8
0030010003
 10
55.9046331206281
 20
16.9874459633901
 11
55.9129991743127
 21
16.9692798095388
  0
ARC
  8
0030010003
 10
56.2878749459374
 20
16.3220677458024
 40
0.747940705936784
 50
120.080121627492
 51
165.703294998907
  0
LINE
  8
0030010003
 10
54.7723514470293
 20
15.1762689651636
 11
54.7384273725709
 21
15.1038178977309
  0
ARC
  8
0030010003
 10
53.4366102089408
 20
12.3235491766882
 40
3.0699547372445
 50
64.9093948014116
 51
78.1501277342572
  0
LINE
  8
0030010003
 10
54.0694747439325
 20
15.3479288619792
 11
54.0670193201843
 21
15.3280801619156
  0
ARC
  8
0030010003
 10
53.9939447376755
 20
13.513839027436
 40
1.83564438359391
 50
64.9093948014116
 51
87.6418239504375
  0
LINE
  8
0030010003
 10
55.7055584092241
 20
15.2987820377045
 11
55.6555271960686
 21
15.3612070143579
  0
ARC
  8
0030010003
 10
54.5962084831901
 20
16.6829408231
 40
1.69385253095609
 50
308.710830218818
 51
331.47630920974
  0
LINE
  8
0030010003
 10
56.1027977008315
 20
15.8661040527668
 11
56.0844607549682
 21
15.8740888142792
  0
ARC
  8
0030010003
 10
54.933468417516
 20
16.2621346463438
 40
1.23457328817201
 50
308.710830218818
 51
341.28969293937
  0
LINE
  8
0030010003
 10
57.1956759796555
 20
14.6160261020499
 11
57.116517356188
 21
14.6044540525026
  0
ARC
  8
0030010003
 10
55.8944394526418
 20
14.4258007936278
 40
1.23506736222868
 50
8.31704785754612
 51
39.1265793487606
  0
LINE
  8
0030010003
 10
56.8669067691329
 20
15.2190941623716
 11
56.8525475964022
 21
15.2051724470143
  0
ARC
  8
0030010003
 10
56.2152833675126
 20
14.4727043591169
 40
0.990813199317488
 50
8.31704785754612
 51
48.8779470473562
  0
LINE
  8
0030010003
 10
57.7462994438901
 20
14.8034995139178
 11
57.822317423611
 21
14.7785742905656
  0
ARC
  8
0030010003
 10
58.9586126464824
 20
14.4059991139019
 40
1.27581733378738
 50
125.809810382268
 51
161.846412407561
  0
LINE
  8
0030010003
 10
58.2121363393543
 20
15.4406405938788
 11
58.224991876533
 21
15.4253195246
  0
ARC
  8
0030010003
 10
59.3448199497409
 20
14.2793671864379
 40
1.60225518407138
 50
134.339413566128
 51
161.846412407561
  0
LINE
  8
0030010003
 10
57.8769418671589
 20
14.055841229454
 11
57.903367489738
 21
14.1313507419098
  0
ARC
  8
0030010003
 10
58.1225666990059
 20
14.7576983472692
 40
0.743595973528463
 50
250.711783533976
 51
305.064008367759
  0
LINE
  8
0030010003
 10
58.5497560417717
 20
14.1490570429897
 11
58.5396138982001
 21
14.1662947030332
  0
ARC
  8
0030010003
 10
58.1791673063796
 20
14.9194309329332
 40
0.834946660777272
 50
250.711783533976
 51
295.575503884149
  0
LINE
  8
0030010003
 10
54.7765991237562
 20
13.4473699263002
 11
54.7021377044838
 21
13.418121045297
  0
ARC
  8
0030010003
 10
50.6862115552441
 20
11.840641765365
 40
4.31463830636612
 50
21.4451902918847
 51
31.97434715249
  0
LINE
  8
0030010003
 10
54.3623782038705
 20
14.1372481202572
 11
54.3462556764592
 21
14.1254132518644
  0
ARC
  8
0030010003
 10
52.5162537000619
 20
12.5594930234737
 40
2.42847417713029
 50
21.4451902918847
 51
40.5182242363034
  0
LINE
  8
0030010003
 10
54.6341636545687
 20
12.6644983653793
 11
54.5916864701228
 21
12.596706855575
  0
ARC
  8
0030010003
 10
54.2895594849947
 20
12.1145269573158
 40
0.64901508717063
 50
57.9293339440374
 51
125.639565272949
  0
LINE
  8
0030010003
 10
53.9113885745397
 20
12.6419806006445
 11
53.921868255045
 21
12.6249460388213
  0
ARC
  8
0030010003
 10
54.2319793920449
 20
12.0226319438713
 40
0.677459361339732
 50
57.9293339440374
 51
117.24240553
  0
LINE
  8
0030010003
 10
55.4558313623778
 20
13.0583902061762
 11
55.3949016538926
 21
13.1102319907124
  0
ARC
  8
0030010003
 10
54.0636352707705
 20
14.2429343572585
 40
1.74793730837522
 50
319.607342296476
 51
340.797545750234
  0
LINE
  8
0030010003
 10
55.7337277845903
 20
13.6631890697292
 11
55.7143213368944
 21
13.6680253687095
  0
ARC
  8
0030010003
 10
54.520007382055
 20
13.8546320782922
 40
1.2287260235944
 50
319.607342296476
 51
351.036449662595
  0
LINE
  8
0030010003
 10
55.7472217938441
 20
12.1824212096636
 11
55.7088373137258
 21
12.2526111782207
  0
ARC
  8
0030010003
 10
54.3625556157634
 20
14.7144256865274
 40
2.80588757500693
 50
298.672732433054
 51
312.160797936598
  0
LINE
  8
0030010003
 10
56.2606061368375
 20
12.6209616123945
 11
56.2459054316265
 21
12.6345221900482
  0
ARC
  8
0030010003
 10
54.9572203938107
 20
13.6270199969222
 40
1.64650170610418
 50
298.672732433054
 51
322.336140196593
  0
LINE
  8
0030010003
 10
54.963772391249
 20
11.690312037408
 11
54.9108866063476
 21
11.7503378131661
  0
ARC
  8
0030010003
 10
54.490264850538
 20
12.2277467660691
 40
0.636271930680781
 50
247.215205968038
 51
311.381704702787
  0
LINE
  8
0030010003
 10
54.2347776139801
 20
11.623304457976
 11
54.2438552373303
 21
11.6411257024419
  0
ARC
  8
0030010003
 10
54.5533802701091
 20
12.1561102756753
 40
0.62079762553236
 50
239.12178213677
 51
311.381704702787
  0
LINE
  8
0030010003
 10
56.7153578799383
 20
13.5617488500106
 11
56.7729491258319
 21
13.6172758560205
  0
ARC
  8
0030010003
 10
60.866871354125
 20
17.564459853294
 40
5.68686739072089
 50
217.335534246292
 51
223.954553263225
  0
LINE
  8
0030010003
 10
56.328319684705
 20
14.1048436155721
 11
56.3452573078227
 21
14.1154792595639
  0
ARC
  8
0030010003
 10
58.3434016963351
 20
15.1314387807401
 40
2.26151567466192
 50
206.996830585868
 51
223.954553263225
  0
LINE
  8
0030010003
 10
57.544705016493
 20
13.0774537266334
 11
57.5742062994884
 21
13.1518155064778
  0
ARC
  8
0030010003
 10
57.9932783825246
 20
14.2081406155429
 40
1.13641724151898
 50
248.36046426848
 51
278.526936920945
  0
LINE
  8
0030010003
 10
58.1666392832878
 20
13.0648843428976
 11
58.1617799315663
 21
13.0842850310516
  0
ARC
  8
0030010003
 10
57.872497669282
 20
13.9036972864511
 40
0.888890568834362
 50
248.36046426848
 51
289.323938569319
  0
LINE
  8
0030010003
 10
56.1762637600065
 20
11.0461773882403
 11
56.2306951242551
 21
11.1048052535096
  0
ARC
  8
0030010003
 10
56.8060533740684
 20
11.7245219631172
 40
0.845627527812946
 50
192.879080989784
 51
227.12571294272
  0
LINE
  8
0030010003
 10
55.9618243718749
 20
11.533805971664
 11
55.9816996031688
 21
11.5360364830433
  0
ARC
  8
0030010003
 10
56.6327961606277
 20
11.5379071187761
 40
0.67098432225334
 50
180.350201749849
 51
227.12571294272
  0
LINE
  8
0030010003
 10
56.8197450516031
 20
11.1020448718458
 11
56.8928415645541
 21
11.0695348765457
  0
ARC
  8
0030010003
 10
57.4033528016464
 20
10.8424827608086
 40
0.638725680865181
 50
82.8534030186998
 51
156.022683230564
  0
LINE
  8
0030010003
 10
57.4828156865509
 20
11.4762462382348
 11
57.4816173263579
 21
11.4562821721949
  0
ARC
  8
0030010003
 10
57.4881729322514
 20
10.8047586350467
 40
0.651556517446236
 50
90.576488573742
 51
156.022683230564
  0
LINE
  8
0030010003
 10
56.8467616123879
 20
10.4100340418196
 11
56.8200536547107
 21
10.3346239297874
  0
ARC
  8
0030010003
 10
56.6182578946515
 20
9.76485213901203
 40
0.684451339928419
 50
18.1007956311922
 51
70.4974099464928
  0
LINE
  8
0030010003
 10
57.2688367078835
 20
9.97750407176464
 11
57.2504699354308
 21
9.96958815933018
  0
ARC
  8
0030010003
 10
56.5547463641822
 20
9.58552687251596
 40
0.794691361234242
 50
28.9000783851204
 51
70.4974099464928
  0
ARC
  8
0010010008
 10
4.44881205697032
 20
20.6299550332336
 40
0.557848066131511
 50
96.4920968020722
 51
99.665868888936
  0
ARC
  8
0010010008
 10
4.29174238648468
 20
22.2649861376328
 40
1.08484006931747
 50
274.970623487345
 51
298.293963027832
  0
ARC
  8
0010010008
 10
5.53677519944746
 20
21.3711473258182
 40
0.733397662626817
 50
184.801830742902
 51
252.701401687268
  0
ARC
  8
0010010008
 10
5.97172817683256
 20
19.9619605654609
 40
0.963885506797997
 50
132.648385989776
 51
151.523298522832
  0
ARC
  8
0010010008
 10
5.10115839125982
 20
20.1356792409141
 40
0.286811542817119
 50
47.0475449199441
 51
85.3395170533541
  0
ARC
  8
0010010008
 10
5.42818879284634
 20
20.4165336052609
 40
0.149498177178725
 50
208.324428080808
 51
289.493223339829
  0
ARC
  8
0010010008
 10
5.56959569286312
 20
20.039011376203
 40
0.253677423292023
 50
82.9502062922116
 51
111.147697021088
  0
ARC
  8
0010010008
 10
4.80171483182071
 20
20.2587426303345
 40
0.799656835439389
 50
307.914608904404
 51
2.29545881581993
  0
ARC
  8
0010010008
 10
4.92123889204715
 20
19.1385550928336
 40
0.614577894320267
 50
11.9040419656822
 51
52.7671133215505
  0
ARC
  8
0010010008
 10
5.32064842334904
 20
18.7558129006991
 40
0.548076697021358
 50
68.3785199132385
 51
151.193647447416
  0
ARC
  8
0010010008
 10
5.83888273277126
 20
18.1996615066584
 40
1.29219844527502
 50
140.597427990769
 51
155.140910279155
  0
ARC
  8
0010010008
 10
4.23353669645683
 20
18.4246772968118
 40
0.537251773941562
 50
349.994884249048
 51
36.319702809066
  0
ARC
  8
0010010008
 10
5.52613400157797
 20
18.4584575707726
 40
0.774025929452091
 50
189.452658671282
 51
207.823150600908
  0
ARC
  8
0010010008
 10
5.64581483885074
 20
17.633439565339
 40
0.928351156219327
 50
137.723543381015
 51
150.030607210788
  0
LINE
  8
0010010008
 10
5.04806844425911
 20
18.2276833350853
 11
4.95892078167141
 21
18.2579493118325
  0
ARC
  8
0010010008
 10
5.79536023868769
 20
17.9318176269281
 40
0.803729770061872
 50
122.724440810807
 51
158.400533167035
  0
ARC
  8
0010010008
 10
5.26516456061814
 20
18.7782265876359
 40
0.195301097144824
 50
299.341402809194
 51
359.913916796914
  0
LINE
  8
0010010008
 10
5.46046543733526
 20
18.777933160479
 11
5.49710004429311
 21
18.9500702893675
  0
ARC
  8
0010010008
 10
4.89323614674237
 20
18.1814737290916
 40
0.977441701194013
 50
344.28377455273
 51
51.8443128929985
  0
LINE
  8
0010010008
 10
5.90004784387043
 20
17.9109041113926
 11
5.83413626536466
 21
17.9167111070893
  0
ARC
  8
0010010008
 10
5.13491245353477
 20
17.7229510903802
 40
0.78788229047986
 50
319.925230873697
 51
13.8012530993892
  0
LINE
  8
0010010008
 10
5.81242137006217
 20
17.16811301903
 11
5.73780390129123
 21
17.2157229307972
  0
ARC
  8
0010010008
 10
5.22055206493947
 20
17.1738537076279
 40
0.59189714465606
 50
318.576462283738
 51
359.444291313052
  0
ARC
  8
0010010008
 10
5.92277971381951
 20
16.3708126625417
 40
0.485844843358365
 50
69.206569113934
 51
122.130998128637
  0
LINE
  8
0010010008
 10
6.09260788933454
 20
16.7315727762691
 11
6.09525452623713
 21
16.8250126745401
  0
ARC
  8
0010010008
 10
6.05923306574015
 20
16.2989685334719
 40
0.433889743755333
 50
54.5384800645178
 51
85.5884477873215
  0
ARC
  8
0010010008
 10
6.42936642266142
 20
16.7450898245961
 40
0.150389651153515
 50
218.061264580497
 51
355.940709486115
  0
ARC
  8
0010010008
 10
6.00549291783646
 20
16.5946626620816
 40
0.590663867692812
 50
278.450820767026
 51
13.6889710768661
  0
LINE
  8
0010010008
 10
6.10429156357325
 20
15.9319859364515
 11
6.09229714289337
 21
16.010412004307
  0
ARC
  8
0010010008
 10
5.79422942696419
 20
16.4002820344167
 40
0.561640244220476
 50
281.615905053516
 51
303.50882258463
  0
LINE
  8
0010010008
 10
5.92311140316901
 20
15.7770545243503
 11
5.90731559978508
 21
15.8501445230209
  0
ARC
  8
0010010008
 10
5.98919850125344
 20
15.1842548836227
 40
0.596472060183908
 50
61.5479597927179
 51
96.3612402024834
  0
ARC
  8
0010010008
 10
6.36218521114352
 20
15.8810235734987
 40
0.193879400864551
 50
242.736238204232
 51
307.676565786986
  0
ARC
  8
0010010008
 10
5.85893194082416
 20
15.5312208383153
 40
0.652020736702979
 50
298.857853692862
 51
17.5263437915929
  0
LINE
  8
0010010008
 10
6.22519057351967
 20
14.8235948309078
 11
6.17362209989386
 21
14.9601681744782
  0
ARC
  8
0010010008
 10
5.71141306175003
 20
15.4118536805472
 40
0.781035086138395
 50
301.499242543587
 51
311.133533677408
  0
ARC
  8
0010010008
 10
5.55241412320353
 20
14.4387071551617
 40
0.644942577942634
 50
325.517251890817
 51
28.4453498958098
  0
LINE
  8
0010010008
 10
6.08403816026567
 20
14.0735677132206
 11
6.16549071792295
 21
14.0342037207765
  0
ARC
  8
0010010008
 10
5.35656663245011
 20
14.0734848525912
 40
0.809877264389302
 50
309.327053047475
 51
357.219916471948
  0
LINE
  8
0010010008
 10
5.86982325671121
 20
13.4470115323078
 11
5.9228603863681
 21
13.3931047027116
  0
ARC
  8
0010010008
 10
5.13978761325929
 20
13.747262848757
 40
0.859436420216561
 50
322.848560452322
 51
335.664319667319
  0
ARC
  8
0010010008
 10
5.88831961975701
 20
12.7656999300361
 40
0.466870779575372
 50
41.7909440631917
 51
97.8202409428083
  0
LINE
  8
0010010008
 10
6.23640976109216
 20
13.0768294502148
 11
6.23475683744807
 21
13.0299355290082
  0
ARC
  8
0010010008
 10
6.16534244357591
 20
12.7502062519444
 40
0.288213161606541
 50
19.769677251126
 51
76.0636441780645
  0
ARC
  8
0010010008
 10
6.55823634463868
 20
12.9496260716025
 40
0.158725489927954
 50
219.956587337056
 51
296.518568359243
  0
ARC
  8
0010010008
 10
6.12034520442926
 20
12.7380816924176
 40
0.51348777210664
 50
274.158044494267
 51
7.78087210216006
  0
LINE
  8
0010010008
 10
6.15757711539662
 20
12.2259455026118
 11
6.15991234480795
 21
12.1278800857592
  0
ARC
  8
0010010008
 10
5.90471014575799
 20
12.5145002731671
 40
0.463252988885434
 50
274.778066727301
 51
303.428204763486
  0
LINE
  8
0010010008
 10
5.94329743902578
 20
12.0528571723743
 11
5.93016025843215
 21
11.9783722228227
  0
ARC
  8
0010010008
 10
5.80969256374006
 20
11.6592826079609
 40
0.341072789558331
 50
16.3915520990676
 51
69.3166921680845
  0
ARC
  8
0010010008
 10
6.14753163945641
 20
11.7600031909559
 40
0.0115306039663338
 50
202.808354828954
 51
288.493762894513
  0
LINE
  8
0010010008
 10
6.1511891634297
 20
11.7490680482402
 11
6.29087143397364
 21
11.7266252104311
  0
ARC
  8
0010010008
 10
5.65482633918098
 20
11.8563337059107
 40
0.649136084661319
 50
282.798171704617
 51
348.473735755544
  0
LINE
  8
0010010008
 10
5.79862126438017
 20
11.223324483311
 11
5.83326029907429
 21
11.103022504925
  0
ARC
  8
0010010008
 10
5.48443877789494
 20
11.5610920229726
 40
0.575763959450599
 50
235.699390042931
 51
307.289397447604
  0
LINE
  8
0010010008
 10
5.15997572519989
 20
11.0854578521669
 11
5.08530828849395
 21
11.0060062031756
  0
ARC
  8
0010010008
 10
5.52589637776037
 20
11.60925997799
 40
0.747016051521861
 50
201.341418311784
 51
233.857370979622
  0
ARC
  8
0010010008
 10
11.5172462209002
 20
11.3655819942828
 40
6.68720117900621
 50
180.241442555763
 51
186.563329097888
  0
ARC
  8
0010010008
 10
2.86842785535585
 20
9.67480025490603
 40
2.20908832893592
 50
8.69920039889871
 51
24.7948281202637
  0
ARC
  8
0010010008
 10
5.0822840018132
 20
10.4016830600017
 40
0.393922664458954
 50
240.337682997631
 51
265.605862739328
  0
ARC
  8
0010010008
 10
4.84685674434966
 20
9.99834228953359
 40
0.0732418327463815
 50
56.4483229607504
 51
121.786912893613
  0
ARC
  8
0010010008
 10
-69.0337223713169
 20
15.2069147713027
 40
74.0211135784105
 50
353.466221480322
 51
356.013296261283
  0
ARC
  8
0010010008
 10
3.39264525584514
 20
6.39108132070432
 40
1.18128186916768
 50
0.540751219293384
 51
19.4345946972794
  0
ARC
  8
0010010008
 10
4.59349578601718
 20
6.14592652150689
 40
0.257053395623216
 50
94.377730961913
 51
148.912038852848
  0
ARC
  8
0010010008
 10
-14.9557290388213
 20
10.8574050716592
 40
19.8640045536076
 50
344.903279514439
 51
346.673207470608
  0
ARC
  8
0010010008
 10
-4.29333530779753
 20
7.7271543866761
 40
8.75775821626188
 50
327.841994419634
 51
346.507695081967
  0
ARC
  8
0010010008
 10
3.0829878986772
 20
3.09012819503681
 40
0.0450023698005663
 50
148.429994981103
 51
327.253993858165
  0
ARC
  8
0010010010
 10
-4.29333530779753
 20
7.7271543866761
 40
8.66775821626188
 50
327.841994419634
 51
346.516013147538
  0
ARC
  8
0010010010
 10
-14.9557290388213
 20
10.8574050716592
 40
19.7740045536076
 50
344.899622796254
 51
346.710792346631
  0
ARC
  8
0010010010
 10
4.59349578601718
 20
6.14592652150689
 40
0.347053395623218
 50
108.955662461391
 51
151.406164343199
  0
ARC
  8
0010010010
 10
3.39264525584514
 20
6.39108132070432
 40
1.09128186916767
 50
4.36608275467
 51
20.5040724896752
  0
ARC
  8
0010010010
 10
-69.0337223713169
 20
15.2069147713027
 40
73.9311135784105
 50
353.449807297149
 51
356.040788220192
  0
ARC
  8
0010010008
 10
4.84685674434966
 20
9.99834228953359
 40
0.163241832746384
 50
56.448322960749
 51
140.469085846266
  0
ARC
  8
0010010010
 10
2.86842785535585
 20
9.67480025490603
 40
2.11908832893591
 50
12.5257877089642
 51
25.1799897698105
  0
ARC
  8
0010010010
 10
11.5172462209002
 20
11.3655819942828
 40
6.77720117900621
 50
178.396772919507
 51
186.687116369808
  0
ARC
  8
0010010008
 10
10.9423313719698
 20
9.42813564419699
 40
6.55437496814099
 50
161.063200798318
 51
167.801581778711
  0
ARC
  8
0010010010
 10
-14.9090280224476
 20
11.3482782032311
 40
19.4523353490715
 50
353.477560886669
 51
358.423347540277
  0
ARC
  8
0010010010
 10
1.54497456567646
 20
8.76696731725397
 40
2.89637289515172
 50
7.37276839238706
 51
41.7402361212659
  0
ARC
  8
0010010010
 10
3.90249312233386
 20
10.7908857780661
 40
0.21838792657955
 50
150.305260296722
 51
205.973775839614
  0
ARC
  8
0010010010
 10
3.98200698973714
 20
11.1647623705661
 40
0.378249735070605
 50
224.621833624173
 51
326.223194241617
  0
LINE
  8
0010010008
 10
4.29641180015042
 20
10.9544709602091
 11
4.20802052905411
 21
11.0543029680416
  0
ARC
  8
0010010010
 10
4.04182946688617
 20
11.3829870918279
 40
0.368310632990276
 50
296.822322751364
 51
4.62551418128936
  0
LINE
  8
0010010008
 10
4.40894053664777
 20
11.4126886882865
 11
4.32428632397464
 21
11.4501567296944
  0
ARC
  8
0010010010
 10
3.83806716574268
 20
11.6391004828033
 40
0.521640500412575
 50
338.763977188695
 51
20.0952741305645
  0
ARC
  8
0010010008
 10
4.05852768856317
 20
12.3394636017606
 40
0.586662326526607
 50
246.535063809658
 51
297.338632235079
  0
ARC
  8
0010010010
 10
4.1544202403165
 20
11.4712320127614
 40
0.46639243896954
 50
134.948781743269
 51
178.737969014998
  0
LINE
  8
0010010008
 10
3.61760858580992
 20
11.5049988497603
 11
3.68814093679918
 21
11.4815042198926
  0
ARC
  8
0010010010
 10
4.49652564314795
 20
11.189368677719
 40
0.933872367715502
 50
160.246148252337
 51
195.622559400661
  0
ARC
  8
0010010010
 10
3.22929901773551
 20
10.8651743561025
 40
0.374970455114395
 50
347.727062633682
 51
11.1799463490809
  0
ARC
  8
0010010010
 10
3.74082991128946
 20
11.0991896590283
 40
0.345665190750312
 50
177.361587205196
 51
245.174434745161
  0
ARC
  8
0010010010
 10
2.55212533781911
 20
11.1829434595163
 40
0.846129945460332
 50
355.401142582883
 51
45.6160553739039
  0
LINE
  8
0010010008
 10
3.14396201596675
 20
11.7876460566695
 11
3.0720713818219
 21
11.7092253409911
  0
ARC
  8
0010010010
 10
2.60970786534512
 20
11.3810160332038
 40
0.567010909142847
 50
35.3690840858827
 51
98.3763849967519
  0
LINE
  8
0010010008
 10
2.52710839346038
 20
11.9419783299149
 11
2.47974314058173
 21
11.795721872735
  0
ARC
  8
0010010010
 10
2.3348340105037
 20
11.4142474034393
 40
0.40807036979472
 50
69.1999248103904
 51
149.413176712427
  0
ARC
  8
0010010008
 10
1.70803955646163
 20
11.3775234627444
 40
0.368263177678713
 50
9.90973643403754
 51
41.572604701617
  0
ARC
  8
0010010010
 10
2.20801487901549
 20
11.4484504779231
 40
0.137414175971424
 50
183.149698272308
 51
258.899664376867
  0
LINE
  8
0010010008
 10
2.11264649110495
 20
11.2484269859193
 11
2.18155884175263
 21
11.3136071100838
  0
ARC
  8
0010010010
 10
2.45555366716367
 20
11.3313187501046
 40
0.352783752406931
 50
193.589547924029
 51
282.089003606917
  0
LINE
  8
0010010008
 10
2.51314643965959
 20
10.8570384485018
 11
2.52943748582732
 21
10.9863585244235
  0
ARC
  8
0010010010
 10
2.96392072553332
 20
11.6034771645472
 40
0.871990948127602
 50
238.872225135722
 51
288.711476336051
  0
ARC
  8
0010010010
 10
3.2862466209134
 20
10.5696691866302
 40
0.21222248465238
 50
46.9935208367491
 51
101.576734025041
  0
ARC
  8
0010010010
 10
3.1573050177217
 20
11.2069882943857
 40
0.554395134696982
 50
258.966387740446
 51
299.582834807742
  0
ARC
  8
0010010008
 10
2.94933793255394
 20
10.229974382984
 40
0.444690828543548
 50
76.7578154671248
 51
131.547961103317
  0
LINE
  8
0010010008
 10
2.65439818522374
 20
10.5627813517144
 11
2.67980086100073
 21
10.4662248314609
  0
ARC
  8
0010010010
 10
2.72975266906385
 20
10.0581083773578
 40
0.411162040123447
 50
96.9780648611663
 51
162.530982217546
  0
LINE
  8
0010010008
 10
2.46075548557602
 20
10.0762019500292
 11
2.33755366256618
 21
10.1815351270545
  0
ARC
  8
0010010010
 10
2.96906898605243
 20
9.74171819984705
 40
0.608491572581328
 50
146.654024301875
 51
200.957089940803
  0
ARC
  8
0010010010
 10
2.69819432259496
 20
8.83159512307097
 40
0.753631608111142
 50
87.7547917627786
 51
113.239480475062
  0
ARC
  8
0010010010
 10
2.66480469497942
 20
9.92807450504868
 40
0.349141551193557
 50
280.38120573253
 51
324.180580356442
  0
LINE
  8
0010010008
 10
3.02200811800096
 20
9.5621309714486
 11
2.94791153652104
 21
9.72374550798227
  0
ARC
  8
0010010010
 10
2.97556042682318
 20
9.90805937629923
 40
0.349032733849199
 50
277.647347684666
 51
354.207941387857
  0
LINE
  8
0010010008
 10
3.44120493322433
 20
9.7980741857469
 11
3.32281124595581
 21
9.87283555041446
  0
ARC
  8
0010010010
 10
2.83654621911164
 20
10.0310578996574
 40
0.647991953267909
 50
338.927607327868
 51
34.3035914136873
  0
ARC
  8
0010010010
 10
3.50106428812885
 20
10.4206855349787
 40
0.131525390501612
 50
109.600915442967
 51
190.706145902903
  0
ARC
  8
0010010010
 10
3.53044386731657
 20
10.3807439696659
 40
0.179576812186524
 50
91.1496621786748
 51
114.161278041689
  0
ARC
  8
0010010008
 10
3.48947279113202
 20
10.3030205711554
 40
0.259963781308553
 50
36.5436199762405
 51
81.7354895717387
  0
ARC
  8
0010010010
 10
2.09340681944259
 20
9.05779346104222
 40
2.12974789107569
 50
9.71149301354012
 51
41.0991073845988
  0
ARC
  8
0010010010
 10
-3.74559051362391
 20
8.33917231371138
 40
8.01107041302413
 50
2.69291911623208
 51
7.73254609656044
  0
ARC
  8
0010010008
 10
7.66136334392813
 20
8.63871207879251
 40
3.40559723203557
 50
178.707060179725
 51
184.301354051936
  0
ARC
  8
0010010008
 10
7.66136334392813
 20
8.63871207879251
 40
3.40559723203557
 50
184.301354051936
 51
194.591618440786
  0
LINE
  8
0010010008
 10
4.36561012821459
 20
7.7807474828084
 11
4.25107023215803
 21
7.77803224886852
  0
ARC
  8
0010010008
 10
4.25046918851602
 20
7.70198296659611
 40
0.0760516573626888
 50
89.5471811702739
 51
140.054524694805
  0
ARC
  8
0010010008
 10
11.8366247196058
 20
6.79724508712267
 40
7.70370524716057
 50
172.889670902156
 51
180.149243031746
  0
ARC
  8
0010010008
 10
4.08793349283261
 20
6.78177069216719
 40
0.0452457445198793
 50
186.12354876941
 51
354.174937294084
  0
ARC
  8
0010010008
 10
11.8366247196058
 20
6.79724508712267
 40
7.79370524716057
 50
172.733932512253
 51
180.149243031746
  0
ARC
  8
0010010010
 10
4.25046918851602
 20
7.70198296659611
 40
0.166051657362689
 50
89.5471811702745
 51
150.808749513767
  0
ARC
  8
0010010010
 10
7.66136334392813
 20
8.63871207879251
 40
3.49559723203557
 50
184.249542567428
 51
192.736779639579
  0
ARC
  8
0010010008
 10
-3.74559051362391
 20
8.33917231371138
 40
7.92107041302413
 50
0.293053911725565
 51
2.71536031993594
  0
ARC
  8
0010010008
 10
-3.74559051362391
 20
8.33917231371138
 40
7.92107041302413
 50
2.71536031993594
 51
7.89835463753798
  0
ARC
  8
0010010010
 10
18.1891408546515
 20
7.75362721308003
 40
14.1879100793514
 50
173.223901501812
 51
176.404494011642
  0
LINE
  8
0010010008
 10
4.01523923933546
 20
8.6433828181999
 11
4.02915754311768
 21
8.64338281819989
  0
ARC
  8
0010010010
 10
-8.49209662930609
 20
8.61534278739593
 40
12.5073672998891
 50
0.128450434831734
 51
5.92210730664078
  0
ARC
  8
0010010008
 10
2.09340681944259
 20
9.05779346104222
 40
2.03974789107569
 50
24.5661982638042
 51
34.6804802356738
  0
ARC
  8
0010010010
 10
-0.224476942449638
 20
9.91448037175684
 40
4.00678945954909
 50
351.78857304843
 51
4.35025548188793
  0
ARC
  8
0010010010
 10
4.18509867900921
 20
8.96383664407103
 40
0.583248443716386
 50
139.554349324257
 51
184.284299670366
  0
ARC
  8
0010010010
 10
3.68656658442058
 20
8.84763149516205
 40
0.110358369912295
 50
19.8966258932428
 51
138.840420462065
  0
ARC
  8
0010010010
 10
-7.70823115137365
 20
7.81817962246663
 40
11.547969059558
 50
349.222278923081
 51
5.3015786096729
  0
ARC
  8
0010010010
 10
4.18503513350732
 20
5.10920942589026
 40
0.77676429250901
 50
134.973683409042
 51
175.918817404486
  0
ARC
  8
0010010010
 10
3.50146964436697
 20
5.0077722966783
 40
0.181338623167526
 50
63.0798327403642
 51
120.204441242711
  0
ARC
  8
0010010010
 10
-1.52364609365684
 20
6.37513410940851
 40
5.24760031561565
 50
325.559233495527
 51
346.717229101012
  0
ARC
  8
0010010008
 10
2.77154617679478
 20
3.43941646300603
 40
0.0457131874026129
 50
155.693328317884
 51
315.425138673168
  0
ARC
  8
0010010008
 10
-1.52364609365684
 20
6.37513410940851
 40
5.15760031561565
 50
325.559233495527
 51
345.621446349508
  0
ARC
  8
0010010008
 10
3.50406445568
 20
4.7824766317695
 40
0.313487833353623
 50
95.797438503635
 51
125.668590427026
  0
ARC
  8
0010010008
 10
4.18503513350732
 20
5.10920942589026
 40
0.866764292509004
 50
136.856132250599
 51
184.7685095921
  0
ARC
  8
0010010008
 10
-7.70823115137365
 20
7.81817962246663
 40
11.457969059558
 50
349.356553023777
 51
5.22012548149132
  0
ARC
  8
0010010008
 10
3.80225712480476
 20
8.41021745529495
 40
0.461411293639127
 50
102.522060605268
 51
125.310359369091
  0
ARC
  8
0010010008
 10
4.18509867900921
 20
8.96383664407103
 40
0.673248443716385
 50
141.853960049142
 51
195.250612703804
  0
ARC
  8
0010010008
 10
-0.224476942449638
 20
9.91448037175684
 40
3.91678945954909
 50
352.152301273084
 51
6.32896795281135
  0
LINE
  8
0010010008
 10
3.62792653691802
 20
10.4016017419465
 11
3.66844104945312
 21
10.3462548253256
  0
ARC
  8
0010010008
 10
3.48947279113202
 20
10.3030205711554
 40
0.169963781308551
 50
35.4514437951996
 51
79.060355832873
  0
ARC
  8
0010010008
 10
3.53044386731657
 20
10.3807439696659
 40
0.0895768121865242
 50
95.5839729671214
 51
116.718799506516
  0
ARC
  8
0010010008
 10
3.50106428812885
 20
10.4206855349787
 40
0.0415253905016146
 50
105.211054834299
 51
172.490196380205
  0
ARC
  8
0010010008
 10
2.83654621911164
 20
10.0310578996574
 40
0.737991953267913
 50
330.513159783752
 51
32.3649702221526
  0
LINE
  8
0010010008
 10
3.37764419221095
 20
9.73176874409578
 11
3.47894516959268
 21
9.66780081230869
  0
ARC
  8
0010010008
 10
2.97556042682318
 20
9.90805937629923
 40
0.439032733849197
 50
268.704529735022
 51
336.325309804839
  0
LINE
  8
0010010008
 10
2.9193018980172
 20
9.57019676666504
 11
2.96563464523505
 21
9.46913885929081
  0
ARC
  8
0010010008
 10
2.66480469497942
 20
9.92807450504868
 40
0.439141551193557
 50
278.967050843517
 51
305.41773225794
  0
ARC
  8
0010010008
 10
2.69819432259496
 20
8.83159512307097
 40
0.663631608111145
 50
86.9718142568421
 51
120.756492627341
  0
ARC
  8
0010010008
 10
2.96906898605243
 20
9.74171819984705
 40
0.698491572581327
 50
153.226354976524
 51
209.112308757827
  0
LINE
  8
0010010008
 10
2.23693028999533
 20
10.1491550310576
 11
2.3454605162531
 21
10.0563655474628
  0
ARC
  8
0010010008
 10
2.72975266906385
 20
10.0581083773578
 40
0.501162040123447
 50
108.683821769132
 51
169.532888824779
  0
LINE
  8
0010010008
 10
2.55414023689935
 20
10.5901313813581
 11
2.56920765456711
 21
10.5328595635395
  0
ARC
  8
0010010008
 10
2.94933793255394
 20
10.229974382984
 40
0.534690828543549
 50
121.28051793154
 51
137.656031338349
  0
ARC
  8
0010010008
 10
2.96392072553332
 20
11.6034771645472
 40
0.961990948127604
 50
235.337025335081
 51
252.316724310392
  0
LINE
  8
0010010008
 10
2.42652290188504
 20
10.8894877121921
 11
2.41679017885409
 21
10.8122283104122
  0
ARC
  8
0010010008
 10
2.45555366716367
 20
11.3313187501046
 40
0.442783752406929
 50
186.577781749757
 51
266.240751113637
  0
LINE
  8
0010010008
 10
2.03594446761655
 20
11.2997595873018
 11
2.01568464444419
 21
11.2805970166231
  0
ARC
  8
0010010008
 10
2.20801487901549
 20
11.4484504779231
 40
0.227414175971418
 50
184.747754327286
 51
220.831220192439
  0
ARC
  8
0010010008
 10
1.70803955646163
 20
11.3775234627444
 40
0.278263177678716
 50
10.7922060102947
 51
53.5733260249875
  0
ARC
  8
0010010008
 10
2.3348340105037
 20
11.4142474034393
 40
0.498070369794722
 50
80.0964393212226
 51
157.926653059674
  0
LINE
  8
0010010008
 10
2.45785040101155
 20
12.0202363749162
 11
2.4204972928501
 21
11.9048958471595
  0
ARC
  8
0010010008
 10
2.60970786534512
 20
11.3810160332038
 40
0.65701090914285
 50
44.9547087454265
 51
103.363835725928
  0
LINE
  8
0010010008
 10
3.13733731638413
 20
11.9136049508593
 11
3.07465182875456
 21
11.8452255178353
  0
ARC
  8
0010010008
 10
2.55212533781911
 20
11.1829434595163
 40
0.936129945460332
 50
40.220317621029
 51
51.3075593562951
  0
ARC
  8
0010010008
 10
0.112229380282503
 20
11.0234772489201
 40
3.2458768860684
 50
13.6128882332898
 51
18.5766688716089
  0
ARC
  8
0010010008
 10
3.19068687395259
 20
12.0284188065743
 40
0.0291577067941061
 50
93.3357407229044
 51
149.389451432058
  0
LINE
  8
0010010008
 10
3.1655923433373
 20
12.0432659072572
 11
3.02357983580235
 21
11.9679650524961
  0
ARC
  8
0010010008
 10
4.0387563750961
 20
12.2551593241268
 40
1.05501846220337
 50
165.414625634953
 51
195.796251503773
  0
ARC
  8
0010010008
 10
1.20438152406348
 20
12.24260720033
 40
1.83457662469266
 50
8.72305728365723
 51
25.3194586575105
  0
ARC
  8
0010010008
 10
2.85453015497955
 20
12.9213402207131
 40
0.106167630006573
 50
85.5736716248202
 51
155.273065441377
  0
ARC
  8
0010010008
 10
2.13850856956422
 20
13.0700290747463
 40
0.628302377274448
 50
273.659436536202
 51
350.446391869869
  0
LINE
  8
0010010008
 10
2.15568711940843
 20
12.5421114260894
 11
2.17861047257399
 21
12.4430077715487
  0
ARC
  8
0010010008
 10
1.97235582658977
 20
13.384884148834
 40
0.862482594102024
 50
249.992757502124
 51
282.27255258348
  0
LINE
  8
0010010008
 10
1.67992880004347
 20
12.707414655024
 11
1.67726696086988
 21
12.5744529139614
  0
ARC
  8
0010010008
 10
1.80950493581821
 20
13.275950533673
 40
0.583114928872038
 50
188.531885629161
 51
257.160911403995
  0
LINE
  8
0010010008
 10
1.35895448090746
 20
13.1844077069982
 11
1.23284307576148
 21
13.1894397283979
  0
ARC
  8
0010010008
 10
1.36141943579597
 20
13.2117743701781
 40
0.0274774499581497
 50
264.853174880509
 51
311.414542019133
  0
ARC
  8
0010010008
 10
1.60919045092465
 20
13.151078001106
 40
0.233068413463188
 50
116.069232031199
 51
170.095358447067
  0
LINE
  8
0010010008
 10
1.50094039608077
 20
13.4227120633931
 11
1.50676693695881
 21
13.360434895287
  0
ARC
  8
0010010008
 10
1.80619623278614
 20
13.086913951449
 40
0.453807776297347
 50
103.212541261018
 51
132.272271412626
  0
LINE
  8
0010010008
 10
1.70247212685358
 20
13.5465532550935
 11
1.70247212685358
 21
13.5287089352101
  0
ARC
  8
0010010008
 10
1.71580759792599
 20
14.1258838711404
 40
0.579484078709753
 50
214.244171147748
 51
268.681355202359
  0
LINE
  8
0010010008
 10
1.25846789209357
 20
13.8485565729789
 11
1.23677882242658
 21
13.7997961073074
  0
ARC
  8
0010010008
 10
1.43574260494283
 20
14.408435008387
 40
0.587273519112581
 50
195.592317144587
 51
252.430613056746
  0
LINE
  8
0010010008
 10
0.991946019916981
 20
14.2952660742405
 11
0.870081563004767
 21
14.2505813676801
  0
ARC
  8
0010010008
 10
0.997194199701848
 20
14.3406177577774
 40
0.04565433813655
 50
263.398988990022
 51
323.665158497337
  0
ARC
  8
0010010008
 10
1.32778033965828
 20
14.2223251749761
 40
0.30765005808301
 50
97.400170089657
 51
162.747813802777
  0
LINE
  8
0010010008
 10
1.2884911122358
 20
14.5710490004137
 11
1.28815546119972
 21
14.5274127480524
  0
ARC
  8
0010010008
 10
1.55611828644851
 20
14.3077829081336
 40
0.37541089451602
 50
111.853015303717
 51
135.470651983021
  0
LINE
  8
0010010008
 10
1.48402555020962
 20
14.7834035767847
 11
1.41638029177724
 21
14.6562174537323
  0
ARC
  8
0010010008
 10
1.7742548571876
 20
15.2301171856661
 40
0.532715776928649
 50
164.963343633429
 51
236.988264893145
  0
LINE
  8
0010010008
 10
1.31033702283492
 20
15.374612939493
 11
1.25977924563527
 21
15.3683233508923
  0
ARC
  8
0010010008
 10
1.66522901225971
 20
15.4785354515189
 40
0.369794825090435
 50
169.402667655766
 51
196.321538170233
  0
ARC
  8
0010010008
 10
1.08884107082805
 20
15.6211551205751
 40
0.225596027774739
 50
340.686651890964
 51
88.3956103144132
  0
ARC
  8
0010010008
 10
1.51695116722951
 20
15.1801826608832
 40
0.78873675636907
 50
105.616299917502
 51
122.328405271029
  0
ARC
  8
0010010008
 10
2.27773608200534
 20
15.5914614923093
 40
1.03357710634143
 50
138.575808356593
 51
160.304205608423
  0
ARC
  8
0010010008
 10
1.6376794094799
 20
16.9800300279991
 40
0.717529554541607
 50
229.813909702617
 51
259.159298001917
  0
ARC
  8
0010010008
 10
0.751755184474643
 20
15.9525806693521
 40
0.639204880412467
 50
48.5750742462161
 51
88.252836810721
  0
ARC
  8
0010010008
 10
-2.09924408342238
 20
16.487094422288
 40
2.87238567473194
 50
2.08281605463867
 51
24.5529550431108
  0
ARC
  8
0010010008
 10
0.532167085152356
 20
17.2235169562467
 40
0.457536122721003
 50
66.9135261183194
 51
92.3490964392772
  0
ARC
  8
0010010008
 10
0.810007440886114
 20
17.7734712813551
 40
0.162312381335783
 50
232.668091554969
 51
302.044535816442
  0
ARC
  8
0010010008
 10
1.22279360089933
 20
17.2917706032679
 40
0.474477557621664
 50
132.165244500596
 51
133.50964566879
  0
ARC
  8
0010010008
 10
1.66509094613266
 20
17.8012949258486
 40
0.777000284761935
 50
159.869930584079
 51
191.720341413663
  0
ARC
  8
0010010008
 10
-2.08112514004431
 20
19.2551157200507
 40
3.24159464213034
 50
338.53104173792
 51
348.806098943019
  0
ARC
  8
0010010008
 10
1.2240679461379
 20
19.0135605117087
 40
0.407468450332391
 50
252.095717401395
 51
276.387513519188
  0
ARC
  8
0010010008
 10
1.03517771897403
 20
19.0793340030599
 40
0.525766283197537
 50
296.45450214951
 51
14.8108357687228
  0
ARC
  8
0010010008
 10
1.81338845887638
 20
19.3530602988195
 40
0.3037508829426
 50
183.992538351423
 51
207.302163130262
  0
ARC
  8
0010010008
 10
1.5349342098745
 20
19.7304689460703
 40
0.399313747065231
 50
259.204324091911
 51
266.473843954547
  0
ARC
  8
0010010008
 10
1.59473057762975
 20
20.1948149381426
 40
0.867101646855697
 50
169.250672136441
 51
261.070498930751
  0
ARC
  8
0010010008
 10
1.23162114796913
 20
20.7102438645013
 40
0.603331614112636
 50
115.906236320323
 51
215.891400135027
  0
ARC
  8
0010010008
 10
1.17457865110294
 20
20.8136665363314
 40
0.485418656909697
 50
57.3816643772474
 51
115.183263375947
  0
ARC
  8
0010010008
 10
-1.55081363774674
 20
18.2924119931134
 40
4.18426154576602
 50
34.3312277365628
 51
44.4486722036014
  0
ARC
  8
0010010008
 10
1.32683389170235
 20
20.0457002213094
 40
0.837614258354701
 50
346.253564722324
 51
46.395940030329
  0
ARC
  8
0010010008
 10
0.734742113624641
 20
20.3479527531503
 40
1.49242248961536
 50
340.373283044915
 51
8.26552131236974
  0
ARC
  8
0010010008
 10
2.33460500359576
 20
20.897630702605
 40
0.356965775155094
 50
249.854149484756
 51
314.550930592965
  0
ARC
  8
0010010008
 10
3.03595807249681
 20
20.7824363904507
 40
0.471919581519632
 50
141.176559775881
 51
197.154094613123
  0
ARC
  8
0010010008
 10
1.55898693760872
 20
22.0138433477811
 40
1.45114310437919
 50
319.856919649801
 51
336.091731127045
  0
ARC
  8
0010010008
 10
3.02792335261906
 20
21.128938318263
 40
0.329148769142989
 50
115.616883093457
 51
137.936284553899
  0
ARC
  8
0010010008
 10
2.2692014554568
 20
21.8626887199986
 40
0.72662108471523
 50
261.977166667012
 51
315.062824450032
  0
LINE
  8
0010010008
 10
2.14892359919369
 20
21.2973385667322
 11
2.16778860125588
 21
21.1431794193251
  0
ARC
  8
0010010008
 10
2.1986145833052
 20
21.8355582649706
 40
0.540508683994808
 50
203.22184786401
 51
264.725136548117
  0
LINE
  8
0010010008
 10
1.744349812903
 20
21.7396884174681
 11
1.70189518027806
 21
21.622439818725
  0
ARC
  8
0010010008
 10
2.23974415260302
 20
22.3263118036704
 40
0.76781674183765
 50
159.488204149756
 51
229.819427394449
  0
ARC
  8
0010010008
 10
2.5998094961524
 20
23.4924725401837
 40
1.4033880879223
 50
219.736009599852
 51
227.712491564984
  0
ARC
  8
0010010008
 10
1.68833170785322
 20
22.4644145371629
 40
0.0343247486367328
 50
197.177729977091
 51
275.97311013709
  0
ARC
  8
0010010008
 10
1.8371512146206
 20
22.088664759329
 40
0.371207768056054
 50
71.459677866001
 51
113.034409625913
  0
LINE
  8
0010010008
 10
1.97601338424154
 20
22.4786642849325
 11
1.95518487780754
 21
22.4406068872703
  0
ARC
  8
0010010008
 10
2.02033488241177
 20
21.9251642806237
 40
0.555271690229119
 50
65.1480158063181
 51
94.5781895814305
  0
ARC
  8
0010010008
 10
2.95364473818535
 20
22.9736703234689
 40
0.886886862152315
 50
196.009557480617
 51
217.887962634177
  0
LINE
  8
0010010008
 10
2.166235792432
 20
22.7821231473712
 11
2.10115515893794
 21
22.7290689671092
  0
ARC
  8
0010010008
 10
2.76810336837833
 20
23.2577478087727
 40
0.767113679651749
 50
175.735466150856
 51
218.317484351318
  0
LINE
  8
0010010008
 10
2.10231058885574
 20
23.3424500625477
 11
2.00311355464426
 21
23.3147914972225
  0
ARC
  8
0010010008
 10
2.9592075433731
 20
23.5314467567674
 40
0.877491960696555
 50
178.059920232984
 51
192.437987554774
  0
ARC
  8
0010010008
 10
1.69645375455805
 20
23.6780397620891
 40
0.403084191828621
 50
343.143275961467
 51
49.1990166008692
  0
ARC
  8
0010010008
 10
2.24727581743936
 20
23.3439374392564
 40
0.700880584599628
 50
40.8692015638819
 51
114.211312370715
  0
LINE
  8
0010010008
 10
2.87358123429057
 20
23.8693770116497
 11
2.7772854340181
 21
23.8025477315556
  0
ARC
  8
0010010008
 10
2.18650570199964
 20
23.0686187848537
 40
1.05512393814868
 50
359.538802216881
 51
49.3693772706019
  0
LINE
  8
0010010008
 10
3.32224592559158
 20
23.070414640613
 11
3.24159545792612
 21
23.0601257410311
  0
ARC
  8
0010010008
 10
2.51532114571598
 20
22.7678858295871
 40
0.861772175158828
 50
356.282872965843
 51
20.5518131870045
  0
ARC
  8
0010010008
 10
3.93502988501241
 20
22.4801524462948
 40
0.605871672766483
 50
114.434563577052
 51
157.499271188216
  0
LINE
  8
0010010008
 10
3.78811939882549
 20
22.9194474611135
 11
3.68440881195882
 21
23.0317587928884
  0
ARC
  8
0010010008
 10
4.12002529793517
 20
22.4019289569087
 40
0.614806415108212
 50
104.55364077993
 51
122.67372232328
  0
ARC
  8
0010010008
 10
3.99538009142571
 20
23.1549690876379
 40
0.16075625543418
 50
259.299948555276
 51
12.2661881963634
  0
ARC
  8
0010010008
 10
3.8552111983777
 20
22.701329664579
 40
0.571228855174978
 50
335.524495692885
 51
58.6423503731573
  0
LINE
  8
0010010008
 10
4.47971361555324
 20
22.3822371591372
 11
4.37510856133866
 21
22.4646671686682
  0
ARC
  8
0010010008
 10
3.97265028258742
 20
22.3541521331218
 40
0.50784051859288
 50
295.763750182726
 51
3.17023705402517
  0
LINE
  8
0010010008
 10
4.27800219840305
 20
21.7795311297461
 11
4.19338895328666
 21
21.8967940331797
  0
ARC
  8
0010010010
 10
4.05852768856317
 20
12.3394636017606
 40
0.496662326526608
 50
234.689852874868
 51
317.648509088983
  0
LINE
  8
0010010008
 10
3.77145579407262
 20
11.9341696417952
 11
3.85409343865545
 21
12.0813948024995
  0
ARC
  8
0010010010
 10
4.16745328451186
 20
12.7974996252135
 40
0.781665216131148
 50
168.344295815368
 51
246.366325358707
  0
ARC
  8
0010010010
 10
3.49581194596339
 20
13.4261977863779
 40
0.480052419426319
 50
258.719355465738
 51
287.165658506018
  0
ARC
  8
0010010010
 10
3.69401404554382
 20
12.8488716701513
 40
0.131431649332767
 50
53.415623390232
 51
115.470463717808
  0
LINE
  8
0010010008
 10
3.77234808936246
 20
12.9544086590479
 11
3.82603675582391
 21
13.0611635443846
  0
ARC
  8
0010010010
 10
3.56277683437928
 20
12.4840123668673
 40
0.634357366118369
 50
17.4876856877494
 51
65.480523239216
  0
LINE
  8
0010010008
 10
4.16781519136609
 20
12.6746372721744
 11
4.27591118616098
 21
12.7618849314801
  0
ARC
  8
0010010010
 10
3.92648580224138
 20
12.3399401584256
 40
0.547846228822877
 50
356.449860859307
 51
50.3708038955514
  0
ARC
  8
0010010008
 10
5.07272627782017
 20
12.3684934203911
 40
0.602692593123155
 50
185.9501475912
 51
222.170225635629
  0
ARC
  8
0010010008
 10
-8.10607144369226
 20
15.9026822035385
 40
13.3274435508913
 50
342.810056238837
 51
345.98323169985
  0
ARC
  8
0010010010
 10
4.60895349613402
 20
12.5902831987006
 40
0.231529358420319
 50
21.3825838860448
 51
91.0788750670333
  0
ARC
  8
0010010008
 10
4.46480106879427
 20
13.1731787736737
 40
0.378191945670526
 50
207.670446519244
 51
291.693112685329
  0
LINE
  8
0010010008
 10
4.12986169696812
 20
12.9975519961859
 11
4.16921587162611
 21
13.0457329397101
  0
ARC
  8
0010010010
 10
4.52193288560015
 20
13.5793343807226
 40
0.639640359731513
 50
187.819623456775
 51
236.534813640936
  0
LINE
  8
0010010008
 10
3.88824034929534
 20
13.4923081822016
 11
3.98732967282959
 21
13.5234358152044
  0
ARC
  8
0010010010
 10
4.61512228137386
 20
13.7216183206121
 40
0.658331120935711
 50
144.36458978923
 51
197.519942173064
  0
ARC
  8
0010010010
 10
4.34371951441789
 20
14.4296856075789
 40
0.418109958089209
 50
230.907418589492
 51
270.215767619533
  0
ARC
  8
0010010008
 10
4.30662854943786
 20
13.81174242887
 40
0.20354243315566
 50
21.0853631612804
 51
79.0493831945948
  0
LINE
  8
0010010008
 10
4.49654289455221
 20
13.8849685417991
 11
4.56485811280702
 21
13.9301966016637
  0
ARC
  8
0010010008
 10
4.07857481058033
 20
13.5691434283883
 40
0.605665620583428
 50
347.758488513183
 51
36.5929613962526
  0
LINE
  8
0010010008
 10
4.67046912752264
 20
13.440722396123
 11
4.76484946643349
 21
13.4655835580431
  0
ARC
  8
0010010008
 10
4.24169698762755
 20
13.2153408662143
 40
0.57992234039958
 50
342.699131650967
 51
25.5634708689835
  0
ARC
  8
0010010010
 10
4.96149763483636
 20
13.0133621734611
 40
0.168718005961447
 50
169.924681592223
 51
238.461344210786
  0
ARC
  8
0010010010
 10
4.40354524171799
 20
13.1119198751554
 40
0.528539438695116
 50
332.707372490921
 51
17.1538504899412
  0
ARC
  8
0010010010
 10
5.48001000950412
 20
13.5607115649696
 40
0.642131866380529
 50
156.180915524609
 51
207.138610976468
  0
LINE
  8
0010010008
 10
4.89257159549675
 20
13.8200365417263
 11
4.99372392588006
 21
13.7836514517845
  0
ARC
  8
0010010010
 10
5.90631199869197
 20
13.8187394171169
 40
0.913262369721712
 50
132.195015953181
 51
182.201872453687
  0
LINE
  8
0010010008
 10
5.29291371547625
 20
14.4953417390888
 11
5.42191926223379
 21
14.4032499936547
  0
ARC
  8
0010010010
 10
5.8775927172546
 20
14.080951965174
 40
0.558134676196707
 50
90.6678505404306
 51
144.728214336613
  0
ARC
  8
0010010008
 10
5.90315126734782
 20
14.8994243027269
 40
0.262342427555723
 50
262.97961767673
 51
304.270379272229
  0
ARC
  8
0010010010
 10
5.55241412320353
 20
14.4387071551617
 40
0.554942577942633
 50
314.466274861235
 51
26.0746103372009
  0
LINE
  8
0010010008
 10
5.94114546848935
 20
14.0426652306059
 11
6.07037567926261
 21
13.9802114883694
  0
ARC
  8
0010010010
 10
5.35656663245011
 20
14.0734848525912
 40
0.7198772643893
 50
301.406373671888
 51
352.555345961073
  0
LINE
  8
0010010008
 10
5.73169797119735
 20
13.459074766025
 11
5.81362220808669
 21
13.3758071399983
  0
ARC
  8
0010010008
 10
5.13978761325929
 20
13.747262848757
 40
0.769436420216558
 50
318.477335852156
 51
331.133962752913
  0
LINE
  8
0010010008
 10
5.71585970095191
 20
13.2371909376139
 11
5.73029703990058
 21
13.1078409079286
  0
ARC
  8
0010010008
 10
5.88831961975701
 20
12.7656999300361
 40
0.376870779575374
 50
47.0487760608075
 51
114.790512309506
  0
LINE
  8
0010010008
 10
6.14511013921117
 20
13.0415444761417
 11
6.14177810558704
 21
12.9470137198139
  0
ARC
  8
0010010010
 10
6.16534244357591
 20
12.7502062519444
 40
0.19821316160654
 50
16.0826742076956
 51
96.8276890958753
  0
ARC
  8
0010010010
 10
6.55823634463868
 20
12.9496260716025
 40
0.248725489927951
 50
215.52104552949
 51
266.313193460206
  0
ARC
  8
0010010010
 10
6.12034520442926
 20
12.7380816924176
 40
0.423487772106633
 50
262.539064926774
 51
355.033005515594
  0
LINE
  8
0010010008
 10
6.06535523958226
 20
12.3181793265157
 11
6.0686651162636
 21
12.179184658621
  0
ARC
  8
0010010010
 10
5.90471014575799
 20
12.5145002731671
 40
0.373252988885415
 50
217.931493904923
 51
296.05665228176
  0
LINE
  8
0010010008
 10
5.61030822805409
 20
12.2850546269583
 11
5.55870457830162
 21
12.171758753275
  0
ARC
  8
0010010010
 10
5.69829020441834
 20
12.7936103773512
 40
0.637325340296922
 50
203.804083423646
 51
257.348646810196
  0
ARC
  8
0010010010
 10
5.02361050075352
 20
12.3921097445328
 40
0.170876933923284
 50
57.5957850741621
 51
140.037737612859
  0
ARC
  8
0010010010
 10
-3.86625587527038
 20
14.804263125396
 40
9.0564503063014
 50
341.411775691506
 51
345.272162521786
  0
ARC
  8
0010010008
 10
4.80899851952627
 20
12.1952104107466
 40
0.292421887786844
 50
251.81859978103
 51
313.662027741358
  0
ARC
  8
0010010008
 10
5.33436248129617
 20
11.7337179453599
 40
0.408790490290356
 50
85.9316524825472
 51
142.306950275304
  0
LINE
  8
0010010008
 10
5.36336469789109
 20
12.1414783362568
 11
5.38250360309051
 21
12.0241571484248
  0
ARC
  8
0010010010
 10
5.62555870975366
 20
11.6357761531403
 40
0.458165453055151
 50
60.8252416268813
 51
122.038998236254
  0
LINE
  8
0010010008
 10
5.84890293525237
 20
12.0358173251584
 11
5.82667336491407
 21
11.9097805082477
  0
ARC
  8
0010010010
 10
5.80969256374006
 20
11.6592826079609
 40
0.25107278955833
 50
15.8756461948229
 51
86.1219552943063
  0
ARC
  8
0010010010
 10
6.14753163945641
 20
11.7600031909559
 40
0.101530603966327
 50
198.394934888905
 51
288.493762894525
  0
ARC
  8
0010010010
 10
5.65482633918098
 20
11.8563337059107
 40
0.559136084661317
 50
272.937750962579
 51
339.849212794767
  0
LINE
  8
0010010008
 10
5.68348260244431
 20
11.2979324346495
 11
5.72862211253374
 21
11.1411621200295
  0
ARC
  8
0010010010
 10
5.48443877789494
 20
11.5610920229726
 40
0.485763959450605
 50
226.694135992166
 51
300.177399138064
  0
LINE
  8
0010010008
 10
5.15125675902253
 20
11.2076003447096
 11
5.0774613297758
 21
11.1290765758441
  0
ARC
  8
0010010008
 10
5.52589637776037
 20
11.60925997799
 40
0.657016051521858
 50
176.609937404372
 51
226.958111483427
  0
ARC
  8
0010010010
 10
4.77517523008289
 20
11.6331947925711
 40
0.0960205286286939
 50
8.93702471353163
 51
151.357125254333
  0
ARC
  8
0010010010
 10
10.9423313719698
 20
9.42813564419699
 40
6.64437496814099
 50
160.196474099096
 51
176.048392962056
  0
ARC
  8
0010010008
 10
1.54497456567646
 20
8.76696731725397
 40
2.98637289515172
 50
22.0070992518079
 51
27.1715719719497
  0
ARC
  8
0010010010
 10
18.1891408546515
 20
7.75362721308003
 40
14.1879100793514
 50
164.088149274267
 51
170.354997697007
  0
ARC
  8
0010010008
 10
4.27753902685019
 20
11.7556007440707
 40
0.289916103017722
 50
337.222385349312
 51
59.2953097833027
  0
ARC
  8
0010010010
 10
5.69989822885075
 20
12.3952015232417
 40
0.777318094663163
 50
131.288547490704
 51
157.984630728654
  0
ARC
  8
0010010008
 10
5.13978761325929
 20
13.747262848757
 40
0.769436420216558
 50
273.516647499244
 51
283.539050111122
  0
ARC
  8
0010010010
 10
5.72994044771648
 20
12.7146365428595
 40
0.499098153374271
 50
145.237740423616
 51
164.510383129377
  0
ARC
  8
0010010010
 10
5.03350114491756
 20
12.902013044777
 40
0.222153352598679
 50
255.867641276187
 51
345.90915036069
  0
ARC
  8
0010010010
 10
3.20845236267826
 20
13.1149142736141
 40
0.215762937648093
 50
61.0202283032485
 51
143.136957812916
  0
ARC
  8
0010010010
 10
-90.2083102221779
 20
-15.7116958607018
 40
97.6366821922413
 50
16.2196988758361
 51
17.2516662710592
  0
ARC
  8
0010010008
 10
4.49652564314795
 20
11.189368677719
 40
1.0238723677155
 50
158.759298834169
 51
173.276136810128
  0
ARC
  8
0010010008
 10
2.55212533781911
 20
11.1829434595163
 40
0.936129945460332
 50
7.75411874144527
 51
24.7600788649779
  0
ARC
  8
0010010010
 10
0.112229380282503
 20
11.0234772489201
 40
3.33587688606841
 50
9.5166691042686
 51
19.2720065289739
  0
ARC
  8
0010010010
 10
3.19068687395259
 20
12.0284188065743
 40
0.119157706794108
 50
53.7347985232588
 51
149.389451432057
  0
ARC
  8
0010010010
 10
4.0387563750961
 20
12.2551593241268
 40
0.965018462203371
 50
164.349769483241
 51
189.909081160526
  0
ARC
  8
0010010010
 10
1.20438152406348
 20
12.24260720033
 40
1.92457662469265
 50
8.15125115516844
 51
26.5984730386921
  0
ARC
  8
0010010010
 10
2.85453015497955
 20
12.9213402207131
 40
0.196167630006571
 50
68.8615014415549
 51
159.431475153151
  0
ARC
  8
0010010008
 10
2.13850856956422
 20
13.0700290747463
 40
0.538302377274447
 50
281.72167412574
 51
351.478083847154
  0
LINE
  8
0010010008
 10
2.24786884566503
 20
12.5429524395304
 11
2.22220099896519
 21
12.6539212578256
  0
ARC
  8
0010010010
 10
1.97235582658977
 20
13.384884148834
 40
0.772482594102021
 50
254.705684797183
 51
288.870572453514
  0
LINE
  8
0010010008
 10
1.76859241747161
 20
12.6397601113106
 11
1.77148611448378
 21
12.7843034017777
  0
ARC
  8
0010010010
 10
1.80950493581821
 20
13.275950533673
 40
0.49311492887204
 50
201.556548136797
 51
265.578146660211
  0
ARC
  8
0010010010
 10
1.36141943579597
 20
13.2117743701781
 40
0.117477449958151
 50
264.85317488051
 51
333.264092050186
  0
ARC
  8
0010010010
 10
1.60919045092465
 20
13.151078001106
 40
0.143068413463186
 50
92.3304556770179
 51
176.856369130753
  0
LINE
  8
0010010008
 10
1.60337287283876
 20
13.2940280858072
 11
1.59503313554025
 21
13.3831676340521
  0
ARC
  8
0010010008
 10
1.80619623278614
 20
13.086913951449
 40
0.363807776297348
 50
60.7645798664626
 51
125.480434372818
  0
LINE
  8
0010010008
 10
1.98387966132875
 20
13.4043800083996
 11
2.01352937002784
 21
13.5120773625268
  0
ARC
  8
0010010008
 10
2.17366603629624
 20
13.2095242958387
 40
0.342318725818312
 50
46.1363217710297
 51
117.891577908425
  0
ARC
  8
0010010010
 10
2.70209548862734
 20
13.7222827643124
 40
0.394384681036338
 50
222.403024665725
 51
290.078307734798
  0
ARC
  8
0010010010
 10
0.976445371576052
 20
12.9608593870497
 40
1.9016760544006
 50
11.8653361035199
 51
31.3617295469772
  0
ARC
  8
0010010010
 10
2.41919355051381
 20
13.8653022146338
 40
0.200159239837353
 50
25.2128573600554
 51
120.521248052402
  0
ARC
  8
0010010010
 10
1.90395169071184
 20
13.9335958285268
 40
0.426496921539926
 50
316.500970971954
 51
14.1319553133376
  0
ARC
  8
0010010008
 10
2.17366603629624
 20
13.2095242958387
 40
0.432318725818311
 50
84.7363311960536
 51
123.290162637119
  0
LINE
  8
0010010008
 10
1.93637523388796
 20
13.5709002161566
 11
1.92379886710317
 21
13.5252187748649
  0
ARC
  8
0010010008
 10
1.80619623278614
 20
13.086913951449
 40
0.453807776297347
 50
74.9805836706514
 51
81.1731538306004
  0
LINE
  8
0010010008
 10
1.8758325177568
 20
13.5353470965703
 11
1.84677442810445
 21
13.6542459245083
  0
ARC
  8
0010010010
 10
1.71580759792599
 20
14.1258838711404
 40
0.489484078709752
 50
219.944558798945
 51
285.519181187086
  0
LINE
  8
0010010008
 10
1.34053676496482
 20
13.8116125469014
 11
1.38592955170282
 21
13.9136627248691
  0
ARC
  8
0010010010
 10
1.43574260494283
 20
14.408435008387
 40
0.497273519112585
 50
204.039475077695
 51
264.250905196312
  0
ARC
  8
0010010010
 10
0.997194199701848
 20
14.3406177577774
 40
0.135654338136544
 50
263.398988990022
 51
332.216676261587
  0
ARC
  8
0010010010
 10
1.32778033965828
 20
14.2223251749761
 40
0.217650058083011
 50
76.8106882120023
 51
165.346340730997
  0
LINE
  8
0010010008
 10
1.37744139025147
 20
14.4342339474172
 11
1.37818525759748
 21
14.5309402874701
  0
ARC
  8
0010010008
 10
1.55611828644851
 20
14.3077829081336
 40
0.28541089451602
 50
77.2783030652074
 51
128.566870278111
  0
LINE
  8
0010010008
 10
1.6189702197944
 20
14.5861873139593
 11
1.6308478954266
 21
14.6651738552463
  0
ARC
  8
0010010010
 10
2.2302682919185
 20
15.6611415256361
 40
1.16243555184456
 50
234.246626136393
 51
238.958483927222
  0
LINE
  8
0010010008
 10
1.55106015832565
 20
14.7177790696026
 11
1.60580095090032
 21
14.8207023097784
  0
ARC
  8
0010010010
 10
1.7742548571876
 20
15.2301171856661
 40
0.442715776928647
 50
172.616118208343
 51
247.635265343926
  0
LINE
  8
0010010008
 10
1.33521036486476
 20
15.287013520368
 11
1.44885014175858
 21
15.3011507606687
  0
ARC
  8
0010010010
 10
1.66522901225971
 20
15.4785354515189
 40
0.279794825090438
 50
170.592913967581
 51
219.344471311481
  0
ARC
  8
0010010010
 10
1.08884107082805
 20
15.6211551205751
 40
0.315596027774736
 50
342.121510636751
 51
45.7617737856401
  0
ARC
  8
0010010010
 10
1.51695116722951
 20
15.1801826608832
 40
0.698736756369072
 50
49.6059141834957
 51
107.312874747038
  0
LINE
  8
0010010008
 10
1.96976143628306
 20
15.7123442105472
 11
2.06601538855217
 21
15.8115157715249
  0
ARC
  8
0010010010
 10
1.8519142356935
 20
15.2865907151036
 40
0.566908827338499
 50
11.8087892247018
 51
67.8109290562461
  0
LINE
  8
0010010008
 10
2.40682500878501
 20
15.4026064572307
 11
2.49009190019401
 21
15.4465688798005
  0
ARC
  8
0010010008
 10
1.46759242723489
 20
15.1075264414188
 40
1.07724414466986
 50
339.579678114748
 51
18.3445927322856
  0
ARC
  8
0010010008
 10
2.96854074438478
 20
14.6261434809282
 40
0.502603299710451
 50
167.879865846334
 51
219.057634478326
  0
ARC
  8
0010010010
 10
2.45047500367901
 20
14.4690604863595
 40
0.204461643282654
 50
308.681991776168
 51
9.25277543790458
  0
ARC
  8
0010010010
 10
3.45603977640415
 20
14.8458089346541
 40
0.874233571884094
 50
152.050523188085
 51
203.162623307802
  0
LINE
  8
0010010008
 10
2.68377573507585
 20
15.2555559159493
 11
2.78061397300671
 21
15.1994515068362
  0
ARC
  8
0010010010
 10
3.23349549089485
 20
15.1744637985283
 40
0.45357034163528
 50
126.582485654936
 51
176.841911187989
  0
LINE
  8
0010010008
 10
2.96317689292739
 20
15.5386806438334
 11
3.04407200872405
 21
15.4655377928347
  0
ARC
  8
0010010010
 10
3.21456588819694
 20
15.4228545084475
 40
0.175755585128294
 50
103.277149370487
 51
165.944839384565
  0
ARC
  8
0010010010
 10
3.05982552273844
 20
16.1518773051048
 40
0.569567286399088
 50
281.58445800809
 51
305.636825607054
  0
ARC
  8
0010010010
 10
2.74101471605256
 20
15.4155550836572
 40
0.705780008088008
 50
331.446575720337
 51
22.7928734519642
  0
LINE
  8
0010010008
 10
3.36095198186601
 20
15.0782077755719
 11
3.48588652586593
 21
15.0302161203942
  0
ARC
  8
0010010010
 10
2.92234715550393
 20
15.0208701067742
 40
0.563616864473191
 50
304.40119111041
 51
0.950134236474128
  0
LINE
  8
0010010008
 10
3.24078175422298
 20
14.5558288438123
 11
3.31815181181412
 21
14.4717089075222
  0
ARC
  8
0010010010
 10
3.04302786309311
 20
14.6068824936754
 40
0.306537249862645
 50
234.237298695206
 51
333.834242839857
  0
ARC
  8
0010010010
 10
3.02152280485012
 20
14.0859650580282
 40
0.314536835797199
 50
120.079109495206
 51
176.795615005954
  0
ARC
  8
0010010010
 10
-6.35796763784568
 20
10.4958841361249
 40
9.75692223619658
 50
17.5637812999737
 51
21.7004583327329
  0
ARC
  8
0010010010
 10
2.90554753866798
 20
13.5398468385899
 40
0.106841840557145
 50
291.153116744245
 51
6.16140263289663
  0
ARC
  8
0010010008
 10
4.06428166236447
 20
13.7009411329134
 40
1.06309190281838
 50
155.630091596477
 51
188.09107443509
  0
LINE
  8
0010010008
 10
3.09591072017126
 20
14.1396005818642
 11
3.20293570563472
 21
14.0694939549157
  0
ARC
  8
0010010010
 10
3.82663451588946
 20
13.9269976241582
 40
0.639769810316576
 50
123.185412975386
 51
167.130533359059
  0
LINE
  8
0010010008
 10
3.47645639980284
 20
14.4624233400204
 11
3.5345143288374
 21
14.3915955381656
  0
ARC
  8
0010010008
 10
3.68145909243132
 20
14.1932388792452
 40
0.246856492087471
 50
89.9741512091359
 51
126.531448770306
  0
ARC
  8
0010010010
 10
3.75042963358846
 20
14.7581345213379
 40
0.325408209150671
 50
257.783363526038
 51
307.649482465194
  0
ARC
  8
0010010010
 10
3.26367059857517
 20
14.2721211306551
 40
0.722564962815293
 50
319.346710657023
 51
18.4242754215892
  0
LINE
  8
0010010008
 10
3.81185585948896
 20
13.8013844258985
 11
3.88749333998484
 21
13.7020082458509
  0
ARC
  8
0010010010
 10
3.39895167370622
 20
13.9052124510132
 40
0.529117102998896
 50
291.27138081514
 51
337.415601675821
  0
LINE
  8
0010010008
 10
3.59090784856367
 20
13.412142744359
 11
3.65948268607573
 21
13.2845942516203
  0
ARC
  8
0010010010
 10
3.50070317610989
 20
13.5570215433816
 40
0.315321363185878
 50
233.465370545263
 51
300.235027059659
  0
ARC
  8
0010010010
 10
1.9417521019086
 20
13.9256692619318
 40
0.609306681881855
 50
27.7568154461335
 51
71.1604307181622
  0
ARC
  8
0010010010
 10
2.2302682919185
 20
15.6611415256361
 40
1.16243555184456
 50
263.290281461317
 51
265.472529245951
  0
ARC
  8
0010010008
 10
1.64580958245623
 20
14.1095815188114
 40
0.599129258147353
 50
30.6198944787604
 51
41.511633023569
  0
ARC
  8
0010010010
 10
2.43706818542126
 20
14.4924723624063
 40
0.286417998377533
 50
195.746833251764
 51
278.812378446416
  0
ARC
  8
0010010010
 10
4.97522956334359
 20
14.8277393144364
 40
0.169674617880697
 50
13.5371418407719
 51
80.2365417980969
  0
ARC
  8
0010010008
 10
5.02651756436851
 20
14.7214486770895
 40
0.274432828968773
 50
94.7058223067826
 51
163.341252786814
  0
ARC
  8
0010010010
 10
8.18813297529801
 20
13.9302958405892
 40
3.533270605425
 50
165.748351587368
 51
179.540267896365
  0
ARC
  8
0010010008
 10
4.07857481058033
 20
13.5691434283883
 40
0.695665620583432
 50
34.048814874935
 51
43.6578878790497
  0
LINE
  8
0010010008
 10
4.58187131860491
 20
14.049396778894
 11
4.52282368367821
 21
14.0103043184504
  0
ARC
  8
0010010008
 10
4.30662854943786
 20
13.81174242887
 40
0.293542433155659
 50
42.5655567254113
 51
62.674674789214
  0
ARC
  8
0010010010
 10
-1.6560743624813
 20
14.1541684821433
 40
6.09799780702482
 50
359.232913135482
 51
7.3587465779982
  0
ARC
  8
0010010008
 10
4.32725723023063
 20
14.725000726829
 40
0.219864414612596
 50
30.5070015783099
 51
72.9567295630391
  0
ARC
  8
0010010010
 10
-0.707412737103766
 20
13.7471882190552
 40
5.33648259891843
 50
8.13992298080422
 51
11.7795519129015
  0
ARC
  8
0010010010
 10
3.08706601461628
 20
14.8614330321734
 40
1.53084484972034
 50
346.450799783389
 51
358.940052223438
  0
ARC
  8
0010010010
 10
4.32725723023063
 20
14.725000726829
 40
0.309864414612596
 50
20.4204912727016
 51
99.7129985929338
  0
ARC
  8
0010010010
 10
4.12186578662641
 20
15.4545859663713
 40
0.450951931207635
 50
226.09389663477
 51
289.848455071085
  0
LINE
  8
0010010008
 10
3.8091402816352
 20
15.1296853618968
 11
3.85964656212487
 21
15.2427445783285
  0
ARC
  8
0010010010
 10
3.90939561203671
 20
15.6235032444961
 40
0.383994960681677
 50
181.000321412653
 51
262.556034070428
  0
LINE
  8
0010010008
 10
3.52545917324773
 20
15.6167994546006
 11
3.61484599528636
 21
15.6810158101547
  0
ARC
  8
0010010010
 10
4.90265086241404
 20
16.1182251763847
 40
1.35999757562908
 50
166.310072240905
 51
198.752334549193
  0
ARC
  8
0010010010
 10
3.78884923472096
 20
16.4954074965862
 40
0.214803855038163
 50
194.922684906963
 51
261.369722745531
  0
ARC
  8
0010010010
 10
3.76645433746282
 20
15.9531011113741
 40
0.330081351608844
 50
40.4938491823768
 51
91.7079581617269
  0
LINE
  8
0010010008
 10
4.01747317803956
 20
16.1674448548224
 11
4.07552346872057
 21
16.250682325079
  0
ARC
  8
0010010010
 10
3.77349660868186
 20
15.7111758262479
 40
0.618294012963028
 50
17.1591480071935
 51
60.758998558651
  0
LINE
  8
0010010008
 10
4.36426971188727
 20
15.8935891673032
 11
4.44448563132554
 21
15.9702253353119
  0
ARC
  8
0010010010
 10
4.05955751551529
 20
15.6115859038534
 40
0.526110155897165
 50
344.453112240591
 51
42.9751623628622
  0
ARC
  8
0010010010
 10
4.97753591658785
 20
15.3559602781899
 40
0.426795332812727
 50
164.422265835432
 51
217.293170242387
  0
ARC
  8
0010010010
 10
-4.33113492600074
 20
17.3076310807594
 40
9.23745951715434
 50
346.156435960242
 51
350.496619152679
  0
ARC
  8
0010010008
 10
4.38177347425328
 20
15.8778827641605
 40
0.409057381703584
 50
346.511911364407
 51
23.809378915616
  0
ARC
  8
0010010010
 10
4.46910967007346
 20
15.9182108642703
 40
0.312878091869576
 50
23.5092853134183
 51
74.4524441795996
  0
ARC
  8
0010010010
 10
4.43321739268184
 20
16.8146741900675
 40
0.606965249056657
 50
228.823727311531
 51
281.379238234797
  0
LINE
  8
0010010008
 10
4.03360493895319
 20
16.3578189609332
 11
4.09488262643936
 21
16.4551677296906
  0
ARC
  8
0010010010
 10
4.29825530312132
 20
17.0810612866992
 40
0.658105759225445
 50
209.921658943604
 51
251.999376324285
  0
LINE
  8
0010010008
 10
3.72786961306655
 20
16.7527879936849
 11
3.81391763721579
 21
16.8386314009371
  0
ARC
  8
0010010010
 10
4.71857179497686
 20
17.298190817067
 40
1.01468911598977
 50
168.104993500445
 51
206.930323053158
  0
ARC
  8
0010010010
 10
3.96989848947678
 20
17.6259071183361
 40
0.271488060558198
 50
205.896063766232
 51
251.290803231119
  0
ARC
  8
0010010010
 10
3.91584844349334
 20
17.0898444817921
 40
0.280869692984559
 50
44.6338925192176
 51
96.754341800277
  0
LINE
  8
0010010008
 10
4.11571828654294
 20
17.2871762589507
 11
4.18045878268121
 21
17.3958090147286
  0
ARC
  8
0010010010
 10
4.08797750772974
 20
16.9545634952191
 40
0.45083300090374
 50
23.5052635034706
 51
78.1626438643734
  0
LINE
  8
0010010008
 10
4.50140193674434
 20
17.1343707147566
 11
4.56592852475986
 21
17.1926739855103
  0
ARC
  8
0010010010
 10
3.97691561045359
 20
16.7036746777285
 40
0.765543294811406
 50
346.867251790412
 51
39.6995027460899
  0
ARC
  8
0010010010
 10
5.16281708232451
 20
16.4842625359218
 40
0.442721674083022
 50
174.104407012195
 51
220.574806541047
  0
ARC
  8
0010010010
 10
4.25574926270339
 20
16.3691864323192
 40
0.596403812795785
 50
343.148989573089
 51
7.78321689516861
  0
ARC
  8
0010010010
 10
4.14224542485969
 20
16.5722455541248
 40
0.714949776662383
 50
350.151226686045
 51
17.8736402066418
  0
ARC
  8
0010010010
 10
5.83880830000661
 20
17.3461111036103
 40
1.1575388647109
 50
173.293220959103
 51
208.618583428833
  0
LINE
  8
0010010008
 10
4.68919066068496
 20
17.481298035955
 11
4.82285740192022
 21
17.4735217172575
  0
ARC
  8
0010010010
 10
5.64581483885074
 20
17.633439565339
 40
0.838351156219325
 50
141.69763427925
 51
190.996721225904
  0
LINE
  8
0010010008
 10
4.98791811557516
 20
18.1530591979911
 11
5.10508402000426
 21
18.1132809196147
  0
ARC
  8
0010010008
 10
5.79536023868769
 20
17.9318176269281
 40
0.713729770061871
 50
122.91137523918
 51
165.271058939417
  0
ARC
  8
0010010010
 10
5.26516456061814
 20
18.7782265876359
 40
0.285301097144823
 50
299.941206254031
 51
359.913916796914
  0
ARC
  8
0010010010
 10
4.89323614674237
 20
18.1814737290916
 40
0.887441701194016
 50
337.173342537884
 51
42.2184223138328
  0
LINE
  8
0010010008
 10
5.71117585980269
 20
17.8371956455357
 11
5.82496903068286
 21
17.8271701466995
  0
ARC
  8
0010010010
 10
5.13491245353477
 20
17.7229510903802
 40
0.69788229047986
 50
311.378779686041
 51
8.58845760836164
  0
LINE
  8
0010010008
 10
5.59623637943236
 20
17.1992909651464
 11
5.71961279970688
 21
17.1205702502765
  0
ARC
  8
0010010010
 10
5.22055206493947
 20
17.1738537076279
 40
0.501897144656058
 50
293.836424670251
 51
353.905760670931
  0
ARC
  8
0010010010
 10
4.51935555222701
 20
18.1933539248946
 40
1.73305617698176
 50
292.316257518967
 51
301.442138536059
  0
ARC
  8
0010010010
 10
5.49900306280965
 20
16.1999860901378
 40
0.505567656173549
 50
129.498993812334
 51
173.508901260082
  0
ARC
  8
0010010010
 10
4.96257409141968
 20
16.6159489445856
 40
0.360425958973364
 50
275.429255290631
 51
322.688011640065
  0
ARC
  8
0010010008
 10
5.79115596447517
 20
16.1481188120559
 40
0.596534947084068
 50
112.803975921971
 51
155.291131425709
  0
LINE
  8
0010010008
 10
5.55995121436483
 20
16.6980263557567
 11
5.6000053094148
 21
16.5999628837385
  0
ARC
  8
0010010008
 10
5.92277971381951
 20
16.3708126625417
 40
0.395844843358363
 50
78.2587660871085
 51
144.627562067615
  0
LINE
  8
0010010008
 10
6.00333095592268
 20
16.7583750928791
 11
5.99991299143792
 21
16.6377033628664
  0
ARC
  8
0010010010
 10
6.05923306574015
 20
16.2989685334719
 40
0.343889743755334
 50
56.3302340971793
 51
99.9330529338802
  0
ARC
  8
0010010010
 10
6.42936642266142
 20
16.7450898245961
 40
0.240389651153517
 50
221.701807853754
 51
287.042396765473
  0
ARC
  8
0010010010
 10
6.00549291783646
 20
16.5946626620816
 40
0.500663867692814
 50
268.046082518394
 51
350.874211151657
  0
LINE
  8
0010010008
 10
5.98842244092336
 20
16.0942898938067
 11
6.00607096267999
 21
15.9788942276236
  0
ARC
  8
0010010008
 10
5.79422942696419
 20
16.4002820344167
 40
0.471640244220475
 50
250.268171389264
 51
296.689749290606
  0
LINE
  8
0010010008
 10
5.63499509359637
 20
15.9563350251406
 11
5.62210412047685
 21
15.8532072423609
  0
ARC
  8
0010010008
 10
5.65962427981448
 20
16.3902627460588
 40
0.538364538587843
 50
222.867194789625
 51
266.00365423301
  0
ARC
  8
0010010010
 10
5.13700111062605
 20
15.8939900273509
 40
0.182481999964072
 50
45.4405585495389
 51
75.9641728964687
  0
ARC
  8
0010010010
 10
5.1556590988516
 20
15.8268515964407
 40
0.245510538935259
 50
84.0149542106756
 51
138.770861900384
  0
ARC
  8
0010010010
 10
8.10988340314103
 20
14.8619211656312
 40
3.33497125602916
 50
160.253705238495
 51
176.183911964188
  0
ARC
  8
0010010010
 10
4.78295308441549
 20
15.2693907086282
 40
0.185514760939548
 50
269.800266152106
 51
351.102820550603
  0
ARC
  8
0010010010
 10
5.53705533175565
 20
15.1607606439341
 40
0.576389810715564
 50
115.649287531928
 51
172.028098856013
  0
LINE
  8
0010010008
 10
5.28755844749956
 20
15.6803532907673
 11
5.37616009404627
 21
15.5080346893923
  0
ARC
  8
0010010010
 10
5.76888371293091
 20
15.3688682969386
 40
0.416652283827237
 50
81.5396188748408
 51
160.487599216921
  0
LINE
  8
0010010008
 10
5.83018388490853
 20
15.7809865015037
 11
5.85368124473127
 21
15.6722600279927
  0
ARC
  8
0010010008
 10
5.98919850125344
 20
15.1842548836227
 40
0.506472060183908
 50
61.456672149212
 51
105.519780637693
  0
ARC
  8
0010010010
 10
6.36218521114352
 20
15.8810235734987
 40
0.283879400864548
 50
242.522367043281
 51
281.016102214544
  0
ARC
  8
0010010010
 10
5.85893194082416
 20
15.5312208383153
 40
0.562020736702979
 50
290.959223411545
 51
7.27341053804838
  0
LINE
  8
0010010008
 10
6.0599686933698
 20
15.0063860713551
 11
6.11788339910465
 21
14.8530054407493
  0
ARC
  8
0010010010
 10
5.71141306175003
 20
15.4118536805472
 40
0.691035086138394
 50
250.239611702543
 51
306.029737323178
  0
LINE
  8
0010010008
 10
5.47778283583753
 20
14.7615103805783
 11
5.4389353102755
 21
14.6490587615535
  0
ARC
  8
0010010010
 10
5.44316242205001
 20
14.968365824776
 40
0.319335042076161
 50
198.421182160526
 51
269.241540369995
  0
ARC
  8
0010010010
 10
3.83444909098211
 20
22.065506244237
 40
0.437751006830708
 50
219.733446721307
 51
319.335083243234
  0
ARC
  8
0010010010
 10
3.61239604848484
 20
21.4838438919981
 40
0.322863413280708
 50
110.788240951482
 51
189.134792348878
  0
ARC
  8
0010010008
 10
3.11211732564919
 20
21.8462814104522
 40
0.451762172523913
 50
274.8718069284
 51
293.6896394898
  0
ARC
  8
0010010010
 10
2.97108605725023
 20
21.360862137232
 40
0.182835832395359
 50
11.1285223864029
 51
91.2391990236446
  0
ARC
  8
0010010010
 10
3.02792335261906
 20
21.128938318263
 40
0.419148769142989
 50
98.339324972721
 51
137.598967318431
  0
ARC
  8
0010010008
 10
2.2692014554568
 20
21.8626887199986
 40
0.636621084715233
 50
268.116243722369
 51
314.878609954805
  0
LINE
  8
0010010008
 10
2.24827455762074
 20
21.226411680926
 11
2.22873809270876
 21
21.3860578216606
  0
ARC
  8
0010010010
 10
2.1986145833052
 20
21.8355582649706
 40
0.450508683994807
 50
207.573124295626
 51
273.833974193134
  0
LINE
  8
0010010008
 10
1.79927431532945
 20
21.6270266732926
 11
1.85133871954451
 21
21.7708149494164
  0
ARC
  8
0010010010
 10
2.23974415260302
 20
22.3263118036704
 40
0.677816741837644
 50
171.397648123703
 51
235.038613392203
  0
ARC
  8
0010010010
 10
1.68833170785322
 20
22.4644145371629
 40
0.124324748636732
 50
197.177729977091
 51
284.476591022387
  0
ARC
  8
0010010010
 10
1.8371512146206
 20
22.088664759329
 40
0.281207768056054
 50
56.294759093722
 51
114.752217702557
  0
LINE
  8
0010010008
 10
1.99319917686519
 20
22.322602448243
 11
2.03026590379442
 21
22.3903299721175
  0
ARC
  8
0010010008
 10
2.02033488241177
 20
21.9251642806237
 40
0.465271690229117
 50
29.106906408781
 51
88.776953685612
  0
LINE
  8
0010010008
 10
2.42684908308171
 20
22.1514913677837
 11
2.4846147002328
 21
22.2342517213785
  0
ARC
  8
0010010008
 10
2.29665875817237
 20
21.7484649124571
 40
0.520880274034056
 50
14.8662338198648
 51
68.8480303570345
  0
ARC
  8
0010010008
 10
3.08051195575444
 20
21.9986561733411
 40
0.303666271522961
 50
202.570370176466
 51
268.071932936776
  0
ARC
  8
0010010008
 10
2.4982888571091
 20
21.699226653017
 40
0.572020760186738
 50
359.592847515875
 51
60.1207937170306
  0
ARC
  8
0010010010
 10
2.95364473818535
 20
22.9736703234689
 40
0.796886862152319
 50
200.215884039513
 51
257.653678211443
  0
LINE
  8
0010010008
 10
2.2058482901357
 20
22.6982994038798
 11
2.29631797285889
 21
22.7720509117823
  0
ARC
  8
0010010010
 10
2.76810336837833
 20
23.2577478087727
 40
0.677113679651753
 50
181.003473188856
 51
225.832406246418
  0
LINE
  8
0010010008
 10
2.09109353400927
 20
23.2458895062339
 11
2.21298036022692
 21
23.2798745418957
  0
ARC
  8
0010010010
 10
2.9592075433731
 20
23.5314467567674
 40
0.787491960696559
 50
178.850568776905
 51
198.630273666984
  0
ARC
  8
0010010008
 10
1.69645375455805
 20
23.6780397620891
 40
0.493084191828621
 50
344.617550025003
 51
32.1088168803368
  0
ARC
  8
0010010010
 10
2.24727581743936
 20
23.3439374392564
 40
0.610880584599633
 50
33.3144515084516
 51
102.590436626814
  0
LINE
  8
0010010008
 10
2.75776969717162
 20
23.6794535899805
 11
2.86566629129653
 21
23.7543338203703
  0
ARC
  8
0010010010
 10
2.18650570199964
 20
23.0686187848537
 40
0.965123938148671
 50
353.364382447561
 51
45.2751453772069
  0
LINE
  8
0010010008
 10
3.14516439429717
 20
22.9570942240162
 11
3.2596933512788
 21
22.9717051366582
  0
ARC
  8
0010010010
 10
2.51532114571598
 20
22.7678858295871
 40
0.771772175158826
 50
329.182812007124
 51
15.3130408997821
  0
ARC
  8
0010010010
 10
3.54420782982096
 20
22.1357421914347
 40
0.435975677515836
 50
147.107277435638
 51
179.446460543166
  0
ARC
  8
0010010010
 10
1.471474368999
 20
21.5694951170218
 40
1.73333958704103
 50
5.53962856893668
 51
19.2147515808304
  0
ARC
  8
0010010010
 10
3.00770619930645
 20
22.0001867563473
 40
0.324171089596486
 50
305.666336684455
 51
351.915785517678
  0
ARC
  8
0010010010
 10
3.83189531047587
 20
22.241236278684
 40
0.579146676681949
 50
151.216765944172
 51
209.665150580325
  0
LINE
  8
0010010008
 10
3.32430358769757
 20
22.5200937979993
 11
3.41915878852934
 21
22.4793813585955
  0
ARC
  8
0010010010
 10
3.93502988501241
 20
22.4801524462948
 40
0.51587167276648
 50
121.532121747415
 51
180.085641622886
  0
LINE
  8
0010010008
 10
3.66524112393923
 20
22.9198541715149
 11
3.77685298848294
 21
22.798986307129
  0
ARC
  8
0010010010
 10
4.12002529793517
 20
22.4019289569087
 40
0.524806415108212
 50
106.418687688777
 51
130.83649590804
  0
ARC
  8
0010010010
 10
3.99538009142571
 20
23.1549690876379
 40
0.250756255434181
 50
264.578115179366
 51
329.04579387524
  0
ARC
  8
0010010010
 10
3.8552111983777
 20
22.701329664579
 40
0.481228855174976
 50
327.234609304395
 51
42.4271684988383
  0
LINE
  8
0010010008
 10
4.25987349505931
 20
22.4408884299456
 11
4.39018620201657
 21
22.3382004885536
  0
ARC
  8
0010010010
 10
3.97265028258742
 20
22.3541521331218
 40
0.417840518592881
 50
280.505705566361
 51
357.812122036753
  0
LINE
  8
0010010008
 10
4.04883658088461
 20
21.9433159773008
 11
4.16649788806549
 21
21.78025277741
  0
ARC
  8
0010010010
 10
2.74086378904515
 20
18.0422271274423
 40
0.75245648434113
 50
329.031870370613
 51
8.75070466016615
  0
ARC
  8
0010010010
 10
3.77796711292217
 20
18.1680726397161
 40
0.293625930962877
 50
155.703550534278
 51
182.219231131774
  0
ARC
  8
0010010008
 10
3.37842453961854
 20
17.5695486621175
 40
0.731335719136953
 50
55.8038443636848
 51
79.6076982018499
  0
ARC
  8
0010010010
 10
3.22996278558777
 20
18.1926258192984
 40
0.559787979765262
 50
286.191654387079
 51
358.139310248893
  0
ARC
  8
0010010010
 10
2.90282452236239
 20
19.964811006196
 40
0.98426257857283
 50
221.312505608547
 51
240.319938473176
  0
ARC
  8
0010010010
 10
2.29054951312796
 20
19.5493276511685
 40
0.457048104560678
 50
196.509234337195
 51
285.860715858453
  0
ARC
  8
0010010008
 10
1.59302889287883
 20
19.8770869397843
 40
0.526001185984238
 50
299.537481079031
 51
318.405077704715
  0
ARC
  8
0010010010
 10
1.83277453216314
 20
19.2199385357399
 40
0.344150042286142
 50
16.0407985357207
 51
63.4871641733067
  0
ARC
  8
0010010010
 10
1.03517771897403
 20
19.0793340030599
 40
0.61576628319754
 50
334.485539997422
 51
15.8439701324161
  0
ARC
  8
0010010010
 10
1.81338845887638
 20
19.3530602988195
 40
0.213750882942605
 50
184.433275703961
 51
209.609291980242
  0
ARC
  8
0010010008
 10
1.5349342098745
 20
19.7304689460703
 40
0.399313747065231
 50
279.418122227206
 51
291.224661295115
  0
ARC
  8
0010010008
 10
1.59302889287883
 20
19.8770869397843
 40
0.526001185984238
 50
279.461565176577
 51
289.639819690458
  0
ARC
  8
0010010008
 10
2.29054951312796
 20
19.5493276511685
 40
0.547048104560675
 50
197.845245594856
 51
216.752993295867
  0
ARC
  8
0010010010
 10
1.39288157159278
 20
19.2286453004904
 40
0.459408836474721
 50
295.531813938594
 51
359.170247430524
  0
ARC
  8
0010010003
 10
3.82082368665873
 20
17.9475415782709
 40
0.684820724084497
 50
153.097181912207
 51
195.924042867714
  0
ARC
  8
0010010008
 10
2.52122346318824
 20
17.5585126699905
 40
0.671872982165098
 50
330.221825578273
 51
17.4198558023757
  0
ARC
  8
0010010008
 10
3.44794061948597
 20
16.3003250241422
 40
0.986279268201907
 50
110.385897604644
 51
129.318464227759
  0
ARC
  8
0010010008
 10
-0.463716282938584
 20
20.5581470619595
 40
4.79751653247595
 50
312.68745239582
 51
313.242520829549
  0
ARC
  8
0010010008
 10
1.7482043988423
 20
17.1635433693338
 40
1.04911062362748
 50
352.778794067026
 51
64.1580763025646
  0
ARC
  8
0010010008
 10
1.40538549062231
 20
17.6999151338743
 40
0.89805809861484
 50
27.0084513155574
 51
31.6573887571306
  0
ARC
  8
0010010003
 10
2.4896138832418
 20
18.1193511054059
 40
0.32398382327967
 50
87.8060587967133
 51
170.781940677032
  0
ARC
  8
0010010008
 10
2.46844587337031
 20
18.8234167830683
 40
0.381798117412017
 50
275.044426552038
 51
308.307835104629
  0
ARC
  8
0010010003
 10
3.1415734142981
 20
18.7393119087608
 40
0.486753939165039
 50
206.276664498566
 51
278.095226676894
  0
ARC
  8
0010010003
 10
1.86438147761369
 20
18.8976171019299
 40
0.262743996781479
 50
213.970805295746
 51
288.2765727424
  0
ARC
  8
0010010003
 10
1.2240679461379
 20
19.0135605117087
 40
0.497468450332391
 50
263.549990529049
 51
328.11687794393
  0
ARC
  8
0010010003
 10
-2.08112514004431
 20
19.2551157200507
 40
3.33159464213033
 50
338.549807154347
 51
347.239412985018
  0
ARC
  8
0010010008
 10
1.66509094613266
 20
17.8012949258486
 40
0.687000284761939
 50
159.954336838119
 51
188.268674526999
  0
ARC
  8
0010010008
 10
1.22279360089933
 20
17.2917706032679
 40
0.474477557621664
 50
97.5418903958848
 51
120.044977644438
  0
ARC
  8
0010010008
 10
1.99134082375248
 20
17.945823763541
 40
0.850884893002273
 50
170.069377085303
 51
192.466553127954
  0
ARC
  8
0010010008
 10
1.75798352700728
 20
17.9219859974651
 40
0.628374418537457
 50
95.1709962591541
 51
164.248921353402
  0
ARC
  8
0010010008
 10
1.40538549062231
 20
17.6999151338743
 40
0.89805809861484
 50
39.0815315382924
 51
70.7579553892558
  0
ARC
  8
0010010008
 10
2.4896138832418
 20
18.1193511054059
 40
0.41398382327967
 50
106.574159457857
 51
159.242287429318
  0
ARC
  8
0010010003
 10
2.04669491790528
 20
18.2202569139336
 40
0.439381891890464
 50
42.32963035303
 51
103.144096637803
  0
ARC
  8
0010010003
 10
0.810007440886114
 20
17.7734712813551
 40
0.252312381335782
 50
232.668091554969
 51
304.426039824662
  0
ARC
  8
0010010003
 10
1.22279360089933
 20
17.2917706032679
 40
0.384477557621664
 50
95.6538909982701
 51
134.637956720022
  0
ARC
  8
0010010008
 10
1.99134082375248
 20
17.945823763541
 40
0.850884893002273
 50
198.603435944518
 51
215.4396232476
  0
ARC
  8
0010010008
 10
2.34246526211981
 20
17.3988498347204
 40
1.04573751704156
 50
177.062372847545
 51
238.571578204383
  0
ARC
  8
0010010008
 10
2.27773608200534
 20
15.5914614923093
 40
1.03357710634143
 50
117.706433228708
 51
132.372159189321
  0
ARC
  8
0010010003
 10
1.6376794094799
 20
16.9800300279991
 40
0.627529554541604
 50
229.896856049625
 51
264.832888879451
  0
ARC
  8
0010010008
 10
0.751755184474643
 20
15.9525806693521
 40
0.729204880412466
 50
48.6565989873227
 51
81.6831908231273
  0
ARC
  8
0010010003
 10
-2.09924408342238
 20
16.487094422288
 40
2.96238567473194
 50
3.61962436342969
 51
21.5007535163344
  0
ARC
  8
0010010003
 10
5.31369636405566
 20
15.4115837663524
 40
2.4199897445018
 50
133.305414393238
 51
167.461223022119
  0
ARC
  8
0010010008
 10
3.44794061948597
 20
16.3003250241422
 40
0.896279268201906
 50
76.7179236888915
 51
129.126994530154
  0
ARC
  8
0010010003
 10
-0.463716282938584
 20
20.5581470619595
 40
4.88751653247595
 50
306.597275667965
 51
313.205344276111
  0
ARC
  8
0010010003
 10
1.71331362495139
 20
18.1934835722173
 40
1.7245940511741
 50
279.485052187675
 51
295.2935187646
  0
ARC
  8
0010010008
 10
2.27773608200534
 20
15.5914614923093
 40
0.943577106341428
 50
107.276468625378
 51
156.903699227152
  0
ARC
  8
0010010008
 10
1.51695116722951
 20
15.1801826608832
 40
0.78873675636907
 50
63.5588463675629
 51
97.8086249157418
  0
ARC
  8
0010010003
 10
1.90344303140648
 20
15.3761496421281
 40
0.511480225537289
 50
78.5871554950213
 51
93.9556844336174
  0
LINE
  8
0010010008
 10
2.00465325080926
 20
15.877516287014
 11
2.0415506300708
 21
15.9155320838835
  0
ARC
  8
0010010008
 10
1.8519142356935
 20
15.2865907151036
 40
0.656908827338506
 50
44.3314939049062
 51
73.2210581373125
  0
ARC
  8
0010010003
 10
2.93312085586699
 20
15.670828783304
 40
0.615875119965914
 50
141.033320199208
 51
173.022573630798
  0
ARC
  8
0010010003
 10
2.63975036000171
 20
15.7386603749626
 40
0.369412458355621
 50
32.466672524196
 51
120.138617719832
  0
ARC
  8
0010010003
 10
2.35285414472412
 20
17.1004515013231
 40
0.413452255309393
 50
129.811345756887
 51
171.031812535481
  0
ARC
  8
0010010003
 10
2.28975213224138
 20
17.6122697660759
 40
0.279948417094526
 50
109.965983724503
 51
223.929939219074
  0
ARC
  8
0010010003
 10
1.40538549062231
 20
17.6999151338743
 40
0.80805809861484
 50
12.5422077591913
 51
68.5111944737143
  0
ARC
  8
0010010008
 10
1.07398545923188
 20
17.9720330702579
 40
0.789823162219931
 50
350.920214294657
 51
37.4047354659806
  0
ARC
  8
0010010003
 10
8.04524241683959
 20
16.5184599663099
 40
6.33234819247364
 50
167.885622828107
 51
172.149226821506
  0
ARC
  8
0010010008
 10
2.53499646332489
 20
17.1571146904922
 40
0.795613586328261
 50
163.474741153397
 51
226.320543464957
  0
ARC
  8
0010010008
 10
1.71331362495139
 20
18.1934835722173
 40
1.6345940511741
 50
279.586295073108
 51
285.973123359798
  0
ARC
  8
0010010003
 10
2.47715856320755
 20
17.0639778785462
 40
0.542178515759063
 50
169.271971012339
 51
234.606085127328
  0
ARC
  8
0010010003
 10
1.99134082375248
 20
17.945823763541
 40
0.76088489300227
 50
170.417656960278
 51
212.344443901804
  0
ARC
  8
0010010003
 10
1.75798352700728
 20
17.9219859974651
 40
0.538374418537457
 50
107.298958012059
 51
163.767115111502
  0
ARC
  8
0010010008
 10
1.07398545923188
 20
17.9720330702579
 40
0.69982316221993
 50
23.4269498118671
 51
41.5281843213116
  0
ARC
  8
0010010008
 10
1.62011792513107
 20
18.0760280763014
 40
0.198937716660762
 50
61.1461835163198
 51
171.627601120624
  0
ARC
  8
0010010008
 10
1.54059599647389
 20
18.0818674901926
 40
0.119553885778104
 50
168.846052434241
 51
248.594602180712
  0
ARC
  8
0010010008
 10
1.38869174443068
 20
17.308208383866
 40
0.671142822290956
 50
55.8588405288026
 51
80.7162558067847
  0
ARC
  8
0010010008
 10
8.04524241683959
 20
16.5184599663099
 40
6.42234819247364
 50
167.909294239608
 51
169.612360684005
  0
ARC
  8
0010010003
 10
1.47943108314648
 20
17.5317786476448
 40
0.287739533053588
 50
30.1853969834027
 51
82.8282442141622
  0
ARC
  8
0010010003
 10
1.60689822161762
 20
17.5731948941274
 40
0.260675279594864
 50
110.559646109057
 51
187.59435686419
  0
ARC
  8
0010010003
 10
5.83888273277126
 20
18.1996615066584
 40
1.38219844527502
 50
140.935920785599
 51
162.891091349742
  0
ARC
  8
0010010003
 10
4.11753755601752
 20
18.7346998926096
 40
0.420404174574754
 50
282.653247334572
 51
342.214983619013
  0
ARC
  8
0010010003
 10
3.91417252834575
 20
18.2631789678643
 40
0.301752228290081
 50
11.7262427485471
 51
85.5800917031698
  0
ARC
  8
0010010003
 10
4.22611927892641
 20
18.2078142563257
 40
0.458514420939359
 50
129.022450288974
 51
169.814993253594
  0
ARC
  8
0010010003
 10
3.37842453961854
 20
17.5695486621175
 40
0.821335719136958
 50
61.1423391353145
 51
101.427130899451
  0
ARC
  8
0010010003
 10
3.3131078140425
 20
19.3138162144167
 40
0.944250435715225
 50
242.408714552018
 51
264.078914891812
  0
ARC
  8
0010010003
 10
3.23661603787988
 20
18.8542904489486
 40
0.52210747581778
 50
194.425230629566
 51
226.279724201437
  0
ARC
  8
0010010003
 10
3.70193027608126
 20
17.6165528134436
 40
1.47299143742701
 50
108.55741990217
 51
131.237107568374
  0
ARC
  8
0010010003
 10
3.53053473080286
 20
17.6293186733095
 40
1.41523661815655
 50
84.2052618227466
 51
102.130280835537
  0
ARC
  8
0010010008
 10
3.80917677296755
 20
19.6189501590893
 40
0.597259147656472
 50
256.862253227873
 51
312.537761007067
  0
ARC
  8
0010010003
 10
7.02116082795551
 20
16.6572969490483
 40
3.77415857208088
 50
129.710486835491
 51
138.078220608132
  0
ARC
  8
0010010003
 10
4.92123889204715
 20
19.1385550928336
 40
0.524577894320269
 50
28.7688746857311
 51
126.417115639034
  0
ARC
  8
0010010003
 10
5.32064842334904
 20
18.7558129006991
 40
0.638076697021357
 50
84.5665838828476
 51
150.42867689159
  0
ARC
  8
0010010003
 10
5.42818879284634
 20
20.4165336052609
 40
0.239498177178723
 50
212.611230762674
 51
289.493223339829
  0
ARC
  8
0010010003
 10
5.10115839125982
 20
20.1356792409141
 40
0.196811542817116
 50
50.4613749497214
 51
95.7333396456502
  0
ARC
  8
0010010008
 10
5.97172817683256
 20
19.9619605654609
 40
0.963885506797997
 50
157.456069582019
 51
165.204725413114
  0
ARC
  8
0010010008
 10
4.21243359176862
 20
20.1454083370626
 40
0.829739296416455
 50
331.754532349869
 51
4.33344994097206
  0
ARC
  8
0010010008
 10
4.92123889204715
 20
19.1385550928336
 40
0.614577894320267
 50
61.7390856776921
 51
87.9359152914627
  0
ARC
  8
0010010003
 10
4.80171483182071
 20
20.2587426303345
 40
0.709656835439388
 50
305.343378205372
 51
354.503098052289
  0
ARC
  8
0010010003
 10
5.97172817683256
 20
19.9619605654609
 40
1.05388550679799
 50
140.130542119297
 51
166.07133931595
  0
ARC
  8
0010010003
 10
4.21243359176862
 20
20.1454083370626
 40
0.739739296416456
 50
327.428546219157
 51
5.44832867238455
  0
ARC
  8
0010010008
 10
4.92123889204715
 20
19.1385550928336
 40
0.614577894320267
 50
97.9886045041541
 51
126.666441493749
  0
ARC
  8
0010010008
 10
7.02116082795551
 20
16.6572969490483
 40
3.86415857208088
 50
129.673416808679
 51
131.11745396651
  0
ARC
  8
0010010008
 10
3.42886527365282
 20
19.841953251733
 40
1.08621365005476
 50
345.414136931986
 51
50.3447354770842
  0
ARC
  8
0010010008
 10
1.24673475226349
 20
20.0571977053317
 40
2.94161862714975
 50
12.1878915977939
 51
16.0646145903642
  0
ARC
  8
0010010008
 10
3.61511591739421
 20
20.8142503632899
 40
0.461892986294554
 50
7.08312657316355
 51
11.0080957574818
  0
ARC
  8
0010010003
 10
4.44881205697032
 20
20.6299550332336
 40
0.467848066131511
 50
96.6291082972642
 51
144.377762056822
  0
ARC
  8
0010010003
 10
4.29174238648468
 20
22.2649861376328
 40
1.17484006931747
 50
275.032623970554
 51
292.242737182119
  0
ARC
  8
0010010003
 10
5.53677519944746
 20
21.3711473258182
 40
0.823397662626819
 50
193.597435050188
 51
242.992441334838
  0
ARC
  8
0010010003
 10
4.16276958031798
 20
19.4075227561603
 40
0.586032865328987
 50
117.70799696046
 51
146.319101247257
  0
ARC
  8
0010010003
 10
4.11450737179067
 20
19.4520039924448
 40
0.52130494682863
 50
147.445728486676
 51
219.394335839619
  0
ARC
  8
0010010008
 10
3.80917677296755
 20
19.6189501590893
 40
0.507259147656473
 50
256.246531791212
 51
258.91457008451
  0
ARC
  8
0010010008
 10
3.53053473080286
 20
17.6293186733095
 40
1.50523661815655
 50
83.9730619836918
 51
91.4787121023165
  0
ARC
  8
0010010003
 10
4.36031257476791
 20
19.4980675045726
 40
0.941811409900129
 50
158.087186624071
 51
202.73711628461
  0
ARC
  8
0010010003
 10
-0.772597077687635
 20
22.2309790806766
 40
4.87970331425842
 50
330.788947859631
 51
336.800776462018
  0
ARC
  8
0010010003
 10
-0.279465119172343
 20
21.6793119692221
 40
4.22073459697683
 50
341.05088823609
 51
346.209814757251
  0
ARC
  8
0010010003
 10
3.34267036318992
 20
20.6701852762906
 40
0.476946677263418
 50
0.36549090915878
 51
17.6813113311305
  0
ARC
  8
0010010008
 10
3.37794293016581
 20
20.9133214369803
 40
0.430510803394707
 50
346.804196764313
 51
27.5809217158921
  0
ARC
  8
0010010008
 10
3.46833955908289
 20
20.9060995484907
 40
0.357007010243188
 50
35.3490905061967
 51
49.0614494704431
  0
ARC
  8
0010010003
 10
3.61511591739421
 20
20.8142503632899
 40
0.371892986294553
 50
6.04417817545743
 51
76.4468338291084
  0
ARC
  8
0010010003
 10
1.24673475226349
 20
20.0571977053317
 40
2.85161862714974
 50
4.76405620087274
 51
16.2132865008529
  0
ARC
  8
0010010003
 10
4.08586656365232
 20
20.0581839738137
 40
0.235863046082326
 50
89.359912158943
 51
213.981407137509
  0
ARC
  8
0010010003
 10
3.41475737493294
 20
20.5954437304899
 40
0.46186484459847
 50
161.633349557109
 51
249.455718951025
  0
ARC
  8
0010010003
 10
3.70403461731346
 20
20.4392510311889
 40
0.787693276568239
 50
119.900109216111
 51
157.477353917897
  0
ARC
  8
0010010003
 10
3.46833955908289
 20
20.9060995484907
 40
0.267007010243185
 50
36.6429559901648
 51
126.005013652066
  0
ARC
  8
0010010003
 10
3.37794293016581
 20
20.9133214369803
 40
0.340510803394707
 50
317.101627475969
 51
26.5375762594599
  0
ARC
  8
0010010003
 10
3.39794555108246
 20
20.8593459598592
 40
0.290276510076552
 50
300.181687710692
 51
322.225543741697
  0
ARC
  8
0010010008
 10
3.35149844705367
 20
20.6349602825882
 40
0.194203772858238
 50
352.145449866009
 51
120.169586232325
  0
ARC
  8
0010010008
 10
3.3266803848072
 20
20.6526926353122
 40
0.166873011598833
 50
115.858315595967
 51
231.969194820747
  0
ARC
  8
0010010008
 10
3.39794555108246
 20
20.8593459598592
 40
0.380276510076558
 50
242.757720901426
 51
259.852605826337
  0
ARC
  8
0010010003
 10
3.48908789525312
 20
20.2760400070994
 40
0.262068575182941
 50
127.115898677312
 51
205.563883440747
  0
ARC
  8
0010010003
 10
1.98619880842039
 20
19.0619471447743
 40
0.711880110079016
 50
37.0490959625745
 51
72.8120469993737
  0
ARC
  8
0010010003
 10
0.734742113624641
 20
20.3479527531503
 40
1.58242248961537
 50
337.486250121463
 51
3.73916691591569
  0
ARC
  8
0010010003
 10
2.33460500359576
 20
20.897630702605
 40
0.446965775155095
 50
267.331571888091
 51
319.923393332432
  0
ARC
  8
0010010003
 10
2.80691767359649
 20
20.4750103535954
 40
0.187524274070347
 50
71.6662324035808
 51
134.015359836739
  0
ARC
  8
0010010008
 10
3.41475737493294
 20
20.5954437304899
 40
0.551864844598468
 50
174.011835066669
 51
227.500616867817
  0
ARC
  8
0010010008
 10
3.96103568109673
 20
19.7920422275366
 40
1.00099371481642
 50
156.663756140402
 51
223.351512490743
  0
ARC
  8
0010010008
 10
3.53053473080286
 20
17.6293186733095
 40
1.50523661815655
 50
101.394425514158
 51
102.322721370875
  0
ARC
  8
0010010008
 10
3.70193027608126
 20
17.6165528134436
 40
1.56299143742701
 50
108.372307700344
 51
113.069555902816
  0
ARC
  8
0010010003
 10
3.2778175779967
 20
19.8318464854534
 40
0.799787735039154
 50
205.236356567444
 51
256.379429124845
  0
ARC
  8
0010010003
 10
2.03649810682489
 20
19.1556989152633
 40
0.448017368319885
 50
325.672181921382
 51
358.918135409544
  0
ARC
  8
0010010003
 10
2.70635266061001
 20
19.0896914179256
 40
0.229257509911053
 50
123.632198234193
 51
165.462051171856
  0
ARC
  8
0010010008
 10
3.2778175779967
 20
19.8318464854534
 40
0.889787735039154
 50
218.283686835239
 51
249.716597005034
  0
ARC
  8
0010010008
 10
3.70193027608126
 20
17.6165528134436
 40
1.56299143742701
 50
117.949775616468
 51
135.664092570875
  0
ARC
  8
0010010003
 10
2.73031601846821
 20
19.0208602197673
 40
0.344598103197118
 50
199.991318274891
 51
244.873428991031
  0
ARC
  8
0010010003
 10
3.89448200098949
 20
21.8332582179125
 40
0.387478162942696
 50
218.397927622646
 51
269.046230475457
  0
ARC
  8
0010010003
 10
3.82295565099772
 20
20.9670715064054
 40
0.483164806047167
 50
23.1944267925125
 51
82.2594184356459
  0
ARC
  8
0010010008
 10
4.44881205697032
 20
20.6299550332336
 40
0.557848066131511
 50
109.013739714742
 51
137.761852434349
  0
ARC
  8
0010010008
 10
3.61511591739421
 20
20.8142503632899
 40
0.461892986294554
 50
24.384707949689
 51
104.383134763975
  0
ARC
  8
0010010008
 10
3.46833955908289
 20
20.9060995484907
 40
0.357007010243188
 50
84.8510074145774
 51
125.199889108346
  0
ARC
  8
0010010008
 10
3.70403461731346
 20
20.4392510311889
 40
0.877693276568236
 50
120.19906690978
 51
157.686788974067
  0
ARC
  8
0010010008
 10
3.41475737493294
 20
20.5954437304899
 40
0.551864844598468
 50
161.288423559775
 51
164.60093613786
  0
ARC
  8
0010010008
 10
2.80691767359649
 20
20.4750103535954
 40
0.277524274070343
 50
74.1522401030878
 51
121.772229469321
  0
ARC
  8
0010010003
 10
3.03595807249681
 20
20.7824363904507
 40
0.38191958151963
 50
141.321506615781
 51
190.788505551979
  0
ARC
  8
0010010003
 10
1.55898693760872
 20
22.0138433477811
 40
1.54114310437919
 50
319.898067959749
 51
333.749096983776
  0
ARC
  8
0010010003
 10
3.11211732564919
 20
21.8462814104522
 40
0.541762172523915
 50
251.608338734539
 51
332.077651313472
  0
ARC
  8
0010010003
 10
1.83541997852732
 20
19.9549252878174
 40
0.314992683334063
 50
118.471757945698
 51
168.620597557701
  0
ARC
  8
0010010003
 10
1.88292405157141
 20
20.4767898447355
 40
0.314774776270456
 50
120.184618508849
 51
231.099487229375
  0
ARC
  8
0010010003
 10
-1.55081363774674
 20
18.2924119931134
 40
4.09426154576602
 50
36.8684165320425
 51
44.2852726902022
  0
ARC
  8
0010010003
 10
1.21019628403374
 20
20.8538925741762
 40
0.34241771303755
 50
60.2413453346027
 51
194.582942102027
  0
ARC
  8
0010010008
 10
0.990570402476052
 20
20.8412289564982
 40
0.133791384258189
 50
213.349313328727
 51
304.141371320706
  0
ARC
  8
0010010008
 10
0.870392856029433
 20
20.9998689025822
 40
0.332702192474857
 50
305.938026182427
 51
17.0005299890252
  0
ARC
  8
0010010003
 10
1.09698168186677
 20
20.8661880268606
 40
0.248448970185179
 50
23.7514645947413
 51
68.3715238385014
  0
ARC
  8
0010010003
 10
0.448249897777316
 20
20.5969672491394
 40
0.950784330579041
 50
356.146248930113
 51
22.8552380767832
  0
ARC
  8
0010010008
 10
6.02135950270279
 20
19.8989612319108
 40
4.66774656315467
 50
172.192343729713
 51
180.502105437181
  0
ARC
  8
0010010003
 10
2.06384360429492
 20
19.8511238472632
 40
0.71008527386889
 50
179.440608561151
 51
217.261663102001
  0
ARC
  8
0010010008
 10
1.54528856943686
 20
19.668223463159
 40
0.251379559486697
 50
259.31995486593
 51
298.361293594735
  0
ARC
  8
0010010003
 10
1.59302889287883
 20
19.8770869397843
 40
0.436001185984238
 50
279.461565176577
 51
290.081172664749
  0
ARC
  8
0010010003
 10
1.96413516132427
 20
19.8719094559704
 40
0.460969710393649
 50
161.644427084646
 51
241.294856178916
  0
LINE
  8
0010010010
 10
7.50000000000005
 20
27.6859110252992
 11
-0.259999999999998
 21
27.6859110252993
  0
LINE
  8
0010010010
 10
-0.259999999999995
 20
27.6859110252992
 11
-0.260000000000293
 21
0
  0
LINE
  8
0090010010
 10
60
 20
0
 11
-0.259999999999984
 21
0
  0
LINE
  8
0010010008
 10
3.57190670670028
 20
15.0935845824537
 11
3.48293210690982
 21
15.1277627863036
  0
ARC
  8
0010010008
 10
2.74101471605256
 20
15.4155550836572
 40
0.795780008088009
 50
338.798556328664
 51
354.240819176632
  0
ARC
  8
0010010008
 10
3.90939561203671
 20
15.6235032444961
 40
0.47399496068167
 50
217.386245920228
 51
240.330417628972
  0
ARC
  8
0010010010
 10
-9.71473370151772
 20
11.3184903606794
 40
13.9440129068329
 50
13.3797781651176
 51
16.2124336450795
  0
ARC
  8
0010010008
 10
3.75042963358846
 20
14.7581345213379
 40
0.235408209150667
 50
255.812318918309
 51
295.238686066581
  0
ARC
  8
0010010008
 10
3.68145909243132
 20
14.1932388792452
 40
0.336856492087472
 50
88.0823518134767
 51
95.1089448429111
  0
ARC
  8
0010010010
 10
-11.6785017849162
 20
10.6482002892462
 40
15.8134915054881
 50
14.2051971151651
 51
15.5042395116578
  0
ARC
  8
0010010008
 10
2.92234715550393
 20
15.0208701067742
 40
0.653616864473189
 50
347.131431960041
 51
6.38734227329132
  0
ARC
  8
0010010008
 10
2.35285414472412
 20
17.1004515013231
 40
0.323452255309387
 50
129.811345756887
 51
171.272759809605
  0
ARC
  8
0010010008
 10
2.08882977034926
 20
17.4180097382963
 40
0.0895284193262179
 50
309.486039623944
 51
44.255245352013
  0
ARC
  8
0010010008
 10
2.28975213224138
 20
17.6122697660759
 40
0.189948417094524
 50
87.6271996782708
 51
223.929939219074
  0
ARC
  8
0010010008
 10
1.40538549062231
 20
17.6999151338743
 40
0.89805809861484
 50
6.5306382142478
 51
17.7963412608348
  0
ARC
  8
0010010003
 10
1.7482043988423
 20
17.1635433693338
 40
0.959110623627476
 50
346.128409224086
 51
57.7167399776198
  0
ARC
  8
0010010008
 10
-0.463716282938584
 20
20.5581470619595
 40
4.79751653247595
 50
306.704599003533
 51
310.930492700563
  0
ARC
  8
0010010008
 10
1.71331362495139
 20
18.1934835722173
 40
1.6345940511741
 50
290.144566330711
 51
294.983991729734
  0
ARC
  8
0010010008
 10
2.47715856320755
 20
17.0639778785462
 40
0.452178515759063
 50
169.094014644734
 51
243.620857866986
  0
ARC
  8
0010010008
 10
1.60689822161762
 20
17.5731948941274
 40
0.170675279594857
 50
118.06075783238
 51
187.59435686419
  0
ARC
  8
0010010008
 10
0.873819498993548
 20
17.6487447829583
 40
0.57237103117828
 50
333.65355830486
 51
350.130596434236
  0
ARC
  8
0010010003
 10
2.34246526211981
 20
17.3988498347204
 40
0.955737517041563
 50
180.247111707591
 51
240.885615293983
  0
ARC
  8
0010010008
 10
2.53499646332489
 20
17.1571146904922
 40
0.88561358632826
 50
163.926551823271
 51
222.056949888692
  0
ARC
  8
0010010008
 10
8.04524241683959
 20
16.5184599663099
 40
6.42234819247364
 50
171.483460499409
 51
172.089756636364
  0
ARC
  8
0010010008
 10
1.04308288324769
 20
17.3956481889049
 40
0.654816252757928
 50
6.48251984752562
 51
17.5665630912275
  0
ARC
  8
0010010008
 10
1.47943108314648
 20
17.5317786476448
 40
0.197739533053591
 50
18.1210234111026
 51
76.1962120004222
  0
ARC
  8
0010010010
 10
-5.73440774732759
 20
16.0323017284462
 40
10.1643375917369
 50
7.94371451020436
 51
12.4835178818586
  0
ARC
  8
0010010008
 10
4.11753755601752
 20
18.7346998926096
 40
0.510404174574749
 50
270.537802115426
 51
278.119590650272
  0
ARC
  8
0010010008
 10
3.91417252834575
 20
18.2631789678643
 40
0.211752228290086
 50
349.42514356309
 51
75.9133750282413
  0
ARC
  8
0010010008
 10
4.22611927892641
 20
18.2078142563257
 40
0.368514420939355
 50
134.962550668208
 51
139.387886932621
  0
ARC
  8
0010010008
 10
4.16276958031798
 20
19.4075227561603
 40
0.496032865328988
 50
117.707996960461
 51
146.216307291971
  0
ARC
  8
0010010008
 10
3.88689967693455
 20
19.9272081620935
 40
0.0923661717929312
 50
299.320837631259
 51
32.3685664667117
  0
ARC
  8
0010010008
 10
4.08586656365232
 20
20.0581839738137
 40
0.145863046082327
 50
46.4201815521948
 51
213.981407137509
  0
ARC
  8
0010010008
 10
1.24673475226349
 20
20.0571977053317
 40
2.94161862714975
 50
2.07777664930393
 51
9.22914808379267
  0
ARC
  8
0010010003
 10
3.42886527365282
 20
19.841953251733
 40
0.996213650054765
 50
336.238295475488
 51
43.6018035700618
  0
ARC
  8
0010010008
 10
7.02116082795551
 20
16.6572969490483
 40
3.86415857208088
 50
133.922992680694
 51
138.010628449826
  0
ARC
  8
0010010008
 10
3.80917677296755
 20
19.6189501590893
 40
0.507259147656473
 50
274.351630011872
 51
312.068797883114
  0
ARC
  8
0010010008
 10
4.11450737179067
 20
19.4520039924448
 40
0.431304946828631
 50
147.562609956513
 51
231.779956006944
  0
ARC
  8
0010010008
 10
3.48908789525312
 20
20.2760400070994
 40
0.172068575182939
 50
118.656345082142
 51
205.563883440747
  0
ARC
  8
0010010008
 10
2.89675895253244
 20
20.0766199291645
 40
0.454673787885719
 50
356.306966887568
 51
15.9796093431309
  0
ARC
  8
0010010008
 10
3.41475737493294
 20
20.5954437304899
 40
0.551864844598468
 50
237.187016127378
 51
263.312303144092
  0
ARC
  8
0010010003
 10
3.96103568109673
 20
19.7920422275366
 40
0.910993714816421
 50
158.113517345435
 51
227.274099615309
  0
ARC
  8
0010010008
 10
3.53053473080286
 20
17.6293186733095
 40
1.50523661815655
 50
95.0929059324213
 51
97.1595116508319
  0
ARC
  8
0010010008
 10
4.36031257476791
 20
19.4980675045726
 40
1.03181140990013
 50
157.759730438168
 51
200.981363201794
  0
ARC
  8
0010010008
 10
-0.772597077687635
 20
22.2309790806766
 40
4.78970331425841
 50
330.722177494072
 51
336.216160615409
  0
ARC
  8
0010010008
 10
3.40006670615804
 20
20.1902211601251
 40
0.236900374535662
 50
27.430059995286
 51
88.4265684498724
  0
ARC
  8
0010010003
 10
1.2843030107997
 20
20.416674246942
 40
0.25986912420523
 50
163.193728554256
 51
233.833016023724
  0
ARC
  8
0010010003
 10
1.23162114796913
 20
20.7102438645013
 40
0.513331614112641
 50
147.588214316783
 51
258.689516885033
  0
ARC
  8
0010010008
 10
1.21019628403374
 20
20.8538925741762
 40
0.432417713037549
 50
162.296106791299
 51
196.408139150402
  0
ARC
  8
0010010008
 10
0.990570402476052
 20
20.8412289564982
 40
0.223791384258187
 50
209.289777927356
 51
328.056931204844
  0
ARC
  8
0010010008
 10
1.02827936272408
 20
20.9186757696275
 40
0.248032763199156
 50
307.850772145794
 51
345.72529537144
  0
ARC
  8
0010010008
 10
0.448249897777316
 20
20.5969672491394
 40
0.860784330579042
 50
357.843366501888
 51
17.6192412438056
  0
LINE
  8
0010010008
 10
1.3084245222996
 20
20.5645746713112
 11
1.27285746586742
 21
20.5645746713112
  0
ARC
  8
0010010008
 10
1.17406334398146
 20
20.4633919276304
 40
0.141415084548915
 50
45.6843363571862
 51
168.406395076253
  0
ARC
  8
0010010008
 10
3.05982552273844
 20
16.1518773051048
 40
0.47956728639909
 50
299.35109827051
 51
326.478557403292
  0
ARC
  8
0010010010
 10
-11.6785017849162
 20
10.6482002892462
 40
15.8134915054881
 50
18.7599116591486
 51
20.5913671532841
  0
ARC
  8
0010010008
 10
5.31369636405566
 20
15.4115837663524
 40
2.3299897445018
 50
152.836605623305
 51
159.965253104332
  0
ARC
  8
0010010010
 10
-9.71473370151772
 20
11.3184903606794
 40
13.9440129068329
 50
19.1252910650657
 51
21.704639721474
  0
ARC
  8
0010010010
 10
5.52613400157797
 20
18.4584575707726
 40
0.864025929452088
 50
188.353967614736
 51
209.907707166267
  0
ARC
  8
0010010010
 10
4.23353669645683
 20
18.4246772968118
 40
0.447251773941564
 50
348.161879315499
 51
29.0221056230816
  0
ARC
  8
0010010008
 10
5.83888273277126
 20
18.1996615066584
 40
1.29219844527502
 50
159.998076671291
 51
162.913100615627
  0
ARC
  8
0010010008
 10
4.11753755601752
 20
18.7346998926096
 40
0.510404174574749
 50
296.990552232206
 51
342.278482308728
  0
ARC
  8
0010010008
 10
4.74441664724629
 20
18.4612931641783
 40
0.43487791134348
 50
204.654148013643
 51
274.319480036329
  0
ARC
  8
0010010008
 10
2.04669491790528
 20
18.2202569139336
 40
0.529381891890464
 50
40.901917754393
 51
71.522807180353
  0
ARC
  8
0010010010
 10
19.922670793212
 20
26.9275747824245
 40
19.5168155509283
 50
203.803895482878
 51
204.86099692939
  0
ARC
  8
0010010008
 10
2.29054951312796
 20
19.5493276511685
 40
0.547048104560675
 50
245.777645985386
 51
265.095426327224
  0
ARC
  8
0010010010
 10
-13.2998005807292
 20
10.9333500982363
 40
17.5140746898415
 50
25.9621164181405
 51
27.4403892784338
  0
LINE
  8
0010010008
 10
2.44681845582252
 20
18.6006052237069
 11
2.44681845582252
 21
18.5668782373777
  0
ARC
  8
0010010008
 10
2.06384360429492
 20
19.8511238472632
 40
0.800085273868889
 50
179.501808748934
 51
210.045009359253
  0
ARC
  8
0010010003
 10
1.59473057762975
 20
20.1948149381426
 40
0.777101646855695
 50
174.58740147806
 51
253.287811058943
  0
ARC
  8
0010010008
 10
1.23162114796913
 20
20.7102438645013
 40
0.603331614112636
 50
227.122437271834
 51
273.476662463517
  0
ARC
  8
0010010008
 10
6.02135950270279
 20
19.8989612319108
 40
4.75774656315467
 50
177.481540088612
 51
180.49231680882
  0
ARC
  8
0010010008
 10
1.96413516132427
 20
19.8719094559704
 40
0.370969710393653
 50
160.7713230133
 51
251.162258826827
  0
ARC
  8
0010010003
 10
1.59302889287883
 20
19.8770869397843
 40
0.436001185984238
 50
305.199836846824
 51
338.847076367211
  0
ARC
  8
0010010008
 10
1.32683389170235
 20
20.0457002213094
 40
0.747614258354702
 50
334.15206557622
 51
55.2643628368214
  0
ARC
  8
0010010008
 10
1.88292405157141
 20
20.4767898447355
 40
0.224774776270458
 50
125.368314426266
 51
231.099487229375
  0
LINE
  8
0010010008
 10
1.74177223025064
 20
20.3018616783778
 11
1.79463653158348
 21
20.1761907799513
  0
ARC
  8
0010010008
 10
1.83541997852732
 20
19.9549252878174
 40
0.224992683334064
 50
100.443489521599
 51
169.976857517117
  0
LINE
  8
0030010003
 10
3.60757252152359
 20
22.0088304721988
 11
3.53689504430658
 21
22.046309722648
  0
ARC
  8
0030010003
 10
4.02961822003015
 20
21.7850257035766
 40
0.55771450269583
 50
126.121809020533
 51
152.063635367569
  0
ARC
  8
0030010003
 10
3.02472162679243
 20
23.1619816465496
 40
1.14693350554209
 50
306.121809020533
 51
328.925122902399
  0
LINE
  8
0030010003
 10
4.02536902929598
 20
22.5619282163751
 11
4.00706270827032
 21
22.5699829423484
  0
ARC
  8
0030010003
 10
3.30333956722284
 20
22.7802064156689
 40
0.754302271233886
 50
306.121809020533
 51
343.179301025306
  0
ARC
  8
0030010003
 10
4.02961822003015
 20
21.7850257035766
 40
0.47771450269583
 50
126.121809020533
 51
152.063635367569
  0
LINE
  8
0030010003
 10
2.89569712151756
 20
22.5515386015206
 11
2.81727150250602
 21
22.5357454928127
  0
ARC
  8
0030010003
 10
0.639327687129871
 20
22.0971579002713
 40
2.30166566775168
 50
11.3857691266502
 51
32.8266806897854
  0
LINE
  8
0030010003
 10
2.57345016336302
 20
23.3448898799193
 11
2.55593376016388
 21
23.3352371280337
  0
ARC
  8
0030010003
 10
-0.708213066525175
 20
21.8257943091517
 40
3.59625807328377
 50
11.3857691266502
 51
24.8172864745224
  0
LINE
  8
0030010003
 10
2.62677892490193
 20
21.6526646692535
 11
2.63763047834773
 21
21.7319252760378
  0
ARC
  8
0030010003
 10
2.79073646864565
 20
22.8502235688975
 40
1.12873048868093
 50
231.468905151679
 51
262.204114896246
  0
LINE
  8
0030010003
 10
2.07371397147248
 20
21.9528633722454
 11
2.08760591946581
 21
21.9672513457285
  0
ARC
  8
0030010003
 10
2.74753936839499
 20
22.5347085235827
 40
0.890272118889821
 50
220.810458424362
 51
262.204114896246
  0
LINE
  8
0030010003
 10
5.39018050090565
 20
16.245364575395
 11
5.42747262620043
 21
16.1745881853274
  0
ARC
  8
0030010003
 10
5.90319397004607
 20
15.2717209143061
 40
1.10052932641433
 50
86.2329277855275
 51
117.784774922754
  0
LINE
  8
0030010003
 10
5.97549924720953
 20
16.3698724271641
 11
5.97613905282246
 21
16.3498826635643
  0
ARC
  8
0030010003
 10
6.19552571203679
 20
14.7169071235469
 40
1.64764669165943
 50
97.65174472648
 51
117.784774922754
  0
LINE
  8
0030010003
 10
5.07059220778312
 20
16.9706406883001
 11
5.14860053038224
 21
16.9529008572617
  0
ARC
  8
0030010003
 10
10.625335762075
 20
15.707439419106
 40
5.69656505276999
 50
156.618017452275
 51
167.188284367366
  0
LINE
  8
0030010003
 10
5.39657565651183
 20
17.9681740693716
 11
5.41535605196194
 21
17.961296806345
  0
ARC
  8
0030010003
 10
19.6800607640116
 20
13.6483092355329
 40
14.9024716845211
 50
163.177109101676
 51
167.188284367366
  0
LINE
  8
0030010003
 10
4.51442438199626
 20
16.5265221440049
 11
4.43690198724691
 21
16.5067666811572
  0
ARC
  8
0030010003
 10
3.87108405154849
 20
16.3625761508805
 40
0.663901400391801
 50
14.2967050010932
 51
70.2555524784723
  0
LINE
  8
0030010003
 10
4.09536687937194
 20
16.98744596339
 11
4.08700082568736
 21
16.9692798095388
  0
ARC
  8
0030010003
 10
3.71212505406265
 20
16.3220677458024
 40
0.747940705936784
 50
14.2967050010932
 51
59.9198783725081
  0
LINE
  8
0030010003
 10
5.22764855297068
 20
15.1762689651636
 11
5.26157262742915
 21
15.1038178977309
  0
ARC
  8
0030010003
 10
6.00605526232449
 20
13.513839027436
 40
1.83564438359391
 50
92.3581760495625
 51
115.090605198588
  0
LINE
  8
0030010003
 10
5.9305252560675
 20
15.3479288619792
 11
5.93298067981569
 21
15.3280801619156
  0
ARC
  8
0030010003
 10
6.56338979105919
 20
12.3235491766882
 40
3.0699547372445
 50
101.849872265743
 51
115.090605198588
  0
LINE
  8
0030010003
 10
4.29444159077594
 20
15.2987820377045
 11
4.34447280393146
 21
15.3612070143579
  0
ARC
  8
0030010003
 10
5.40379151680992
 20
16.6829408231
 40
1.69385253095609
 50
208.52369079026
 51
231.289169781182
  0
LINE
  8
0030010003
 10
3.89720229916854
 20
15.8661040527668
 11
3.91553924503178
 21
15.8740888142792
  0
ARC
  8
0030010003
 10
5.06653158248397
 20
16.2621346463438
 40
1.23457328817201
 50
198.71030706063
 51
231.289169781182
  0
LINE
  8
0030010003
 10
2.80432402034449
 20
14.6160261020499
 11
2.88348264381203
 21
14.6044540525026
  0
ARC
  8
0030010003
 10
3.7847166324874
 20
14.4727043591169
 40
0.990813199317488
 50
131.122052952644
 51
171.682952142454
  0
LINE
  8
0030010003
 10
3.13309323086713
 20
15.2190941623716
 11
3.14745240359779
 21
15.2051724470143
  0
ARC
  8
0030010003
 10
4.10556054735824
 20
14.4258007936278
 40
1.23506736222868
 50
140.873420651239
 51
171.682952142454
  0
LINE
  8
0030010003
 10
2.25370055610991
 20
14.8034995139178
 11
2.17768257638904
 21
14.7785742905656
  0
ARC
  8
0030010003
 10
1.04138735351765
 20
14.4059991139019
 40
1.27581733378738
 50
18.1535875924387
 51
54.1901896177321
  0
LINE
  8
0030010003
 10
1.78786366064574
 20
15.4406405938788
 11
1.77500812346697
 21
15.4253195246
  0
ARC
  8
0030010003
 10
0.655180050259116
 20
14.2793671864379
 40
1.60225518407138
 50
18.1535875924387
 51
45.6605864338724
  0
LINE
  8
0030010003
 10
2.12305813284107
 20
14.055841229454
 11
2.09663251026203
 21
14.1313507419098
  0
ARC
  8
0030010003
 10
1.82083269362039
 20
14.9194309329332
 40
0.834946660777272
 50
244.424496115851
 51
289.288216466024
  0
LINE
  8
0030010003
 10
1.45024395822832
 20
14.1490570429897
 11
1.46038610179987
 21
14.1662947030332
  0
ARC
  8
0030010003
 10
1.8774333009941
 20
14.7576983472692
 40
0.743595973528463
 50
234.935991632242
 51
289.288216466024
  0
LINE
  8
0030010003
 10
5.22340087624379
 20
13.4473699263002
 11
5.29786229551621
 21
13.418121045297
  0
ARC
  8
0030010003
 10
7.4837462999381
 20
12.5594930234736
 40
2.42847417713029
 50
139.481775763697
 51
158.554809708115
  0
LINE
  8
0030010003
 10
5.63762179612954
 20
14.1372481202572
 11
5.65374432354078
 21
14.1254132518644
  0
ARC
  8
0030010003
 10
9.31378844475589
 20
11.840641765365
 40
4.31463830636612
 50
148.02565284751
 51
158.554809708115
  0
LINE
  8
0030010003
 10
5.36583634543132
 20
12.6644983653793
 11
5.40831352987722
 21
12.596706855575
  0
ARC
  8
0030010003
 10
5.71044051500529
 20
12.1145269573158
 40
0.64901508717063
 50
54.3604347270515
 51
122.070666055963
  0
LINE
  8
0030010003
 10
6.0886114254603
 20
12.6419806006445
 11
6.07813174495506
 21
12.6249460388213
  0
ARC
  8
0030010003
 10
5.76802060795507
 20
12.0226319438713
 40
0.677459361339732
 50
62.7575944699997
 51
122.070666055963
  0
LINE
  8
0030010003
 10
4.54416863762217
 20
13.0583902061761
 11
4.60509834610741
 21
13.1102319907124
  0
ARC
  8
0030010003
 10
5.93636472922949
 20
14.2429343572584
 40
1.74793730837522
 50
199.202454249766
 51
220.392657703524
  0
LINE
  8
0030010003
 10
4.26627221540971
 20
13.6631890697292
 11
4.28567866310559
 21
13.6680253687095
  0
ARC
  8
0030010003
 10
5.47999261794502
 20
13.8546320782921
 40
1.2287260235944
 50
188.963550337406
 51
220.392657703524
  0
LINE
  8
0030010003
 10
4.25277820615589
 20
12.1824212096636
 11
4.29116268627418
 21
12.2526111782207
  0
ARC
  8
0030010003
 10
5.63744438423659
 20
14.7144256865274
 40
2.80588757500693
 50
227.839202063402
 51
241.327267566946
  0
LINE
  8
0030010003
 10
3.73939386316254
 20
12.6209616123945
 11
3.75409456837348
 21
12.6345221900482
  0
ARC
  8
0030010003
 10
5.04277960618936
 20
13.6270199969222
 40
1.64650170610418
 50
217.663859803407
 51
241.327267566946
  0
LINE
  8
0030010003
 10
5.03622760875102
 20
11.690312037408
 11
5.0891133936524
 21
11.7503378131661
  0
ARC
  8
0030010003
 10
5.50973514946203
 20
12.2277467660691
 40
0.636271930680781
 50
228.618295297213
 51
292.784794031962
  0
LINE
  8
0030010003
 10
5.76522238601989
 20
11.623304457976
 11
5.75614476266974
 21
11.6411257024419
  0
ARC
  8
0030010003
 10
5.44661972989093
 20
12.1561102756753
 40
0.62079762553236
 50
228.618295297213
 51
300.87821786323
  0
LINE
  8
0030010003
 10
3.28464212006174
 20
13.5617488500106
 11
3.22705087416812
 21
13.6172758560204
  0
ARC
  8
0030010003
 10
-0.866871354124978
 20
17.564459853294
 40
5.68686739072089
 50
316.045446736775
 51
322.664465753708
  0
LINE
  8
0030010003
 10
3.67168031529502
 20
14.1048436155721
 11
3.65474269217726
 21
14.1154792595639
  0
ARC
  8
0030010003
 10
1.65659830366495
 20
15.1314387807401
 40
2.26151567466192
 50
316.045446736775
 51
333.003169414132
  0
LINE
  8
0030010003
 10
2.45529498350696
 20
13.0774537266334
 11
2.42579370051157
 21
13.1518155064778
  0
ARC
  8
0030010003
 10
2.00672161747541
 20
14.2081406155429
 40
1.13641724151898
 50
261.473063079055
 51
291.63953573152
  0
LINE
  8
0030010003
 10
1.83336071671225
 20
13.0648843428976
 11
1.83822006843373
 21
13.0842850310516
  0
ARC
  8
0030010003
 10
2.12750233071797
 20
13.9036972864511
 40
0.888890568834362
 50
250.676061430681
 51
291.63953573152
  0
LINE
  8
0030010003
 10
3.82373623999352
 20
11.0461773882403
 11
3.76930487574488
 21
11.1048052535096
  0
ARC
  8
0030010003
 10
3.19394662593165
 20
11.7245219631172
 40
0.845627527812946
 50
312.87428705728
 51
347.120919010216
  0
LINE
  8
0030010003
 10
4.03817562812514
 20
11.533805971664
 11
4.01830039683123
 21
11.5360364830433
  0
ARC
  8
0030010003
 10
3.36720383937233
 20
11.5379071187761
 40
0.67098432225334
 50
312.87428705728
 51
359.649798250151
  0
LINE
  8
0030010003
 10
3.1802549483969
 20
11.1020448718458
 11
3.10715843544596
 21
11.0695348765457
  0
ARC
  8
0030010003
 10
2.59664719835358
 20
10.8424827608086
 40
0.638725680865181
 50
23.977316769436
 51
97.1465969813003
  0
LINE
  8
0030010003
 10
2.51718431344908
 20
11.4762462382348
 11
2.51838267364208
 21
11.4562821721949
  0
ARC
  8
0030010003
 10
2.51182706774865
 20
10.8047586350467
 40
0.651556517446236
 50
23.977316769436
 51
89.423511426258
  0
LINE
  8
0030010003
 10
3.15323838761212
 20
10.4100340418197
 11
3.17994634528932
 21
10.3346239297874
  0
ARC
  8
0030010003
 10
3.38174210534853
 20
9.76485213901201
 40
0.684451339928419
 50
109.502590053507
 51
161.899204368808
  0
LINE
  8
0030010003
 10
2.73116329211649
 20
9.97750407176464
 11
2.74953006456921
 21
9.96958815933018
  0
ARC
  8
0030010003
 10
3.44525363581783
 20
9.58552687251597
 40
0.794691361234242
 50
109.502590053507
 51
151.09992161488
  0
ARC
  8
0010010008
 10
4.08797750772974
 20
16.9545634952191
 40
0.540833000903743
 50
63.1324399939732
 51
85.3610062687154
  0
ARC
  8
0010010010
 10
1.34873653618883
 20
17.4480012362112
 40
2.78335602028961
 50
0.939208854822204
 51
21.0490964406684
  0
ARC
  8
0010010008
 10
3.82295565099772
 20
20.9670715064054
 40
0.57316480604717
 50
21.7953942991989
 51
77.7025800548701
  0
ARC
  8
0010010008
 10
3.83444909098211
 20
22.065506244237
 40
0.527751006830707
 50
282.095165110727
 51
327.188625472887
  0
LINE
  8
0010010008
 10
3.9450319534856
 20
21.5494708232324
 11
3.94503195348565
 21
21.5270851412947
  0
ARC
  8
0010010008
 10
56.1770443490023
 20
20.9670715064054
 40
0.57316480604717
 50
103.530871207286
 51
158.204605700801
  0
ARC
  8
0010010008
 10
56.1655509090179
 20
22.065506244237
 40
0.527751006830707
 50
212.811374527113
 51
256.566035456453
  0
LINE
  8
0010010008
 10
56.0429414109516
 20
21.5243275489004
 11
56.0429414109516
 21
21.5521953869636
  0
ENDSEC
  0
EOF
