  0
SECTION
  2
HEADER
  9
$ACADVER
  1
AC1006
  9
$EXTMIN
 10
0.000000
 20
0.000000
  9
$EXTMAX
 10
20.000000
 20
41.999999
  9
$LTSCALE
 40
0.100000
  9
$PDMODE
 70
    35
  9
$PDSIZE
 40
0.080000
  0
ENDSEC
  0
SECTION
  2
TABLES
  0
TABLE
  2
LTYPE
 70
     9
  0
LTYPE
  2
CONTINUOUS
 70
    64
  3
Solid line
 72
    65
 73
     0
 40
0.000000
  0
LTYPE
  2
DASHED
 70
    64
  3
__ __ __ __ __ __ __ __ __ __ __ __ __ __ __
 72
    65
 73
     2
 40
0.000750
 49
0.000500
 49
-0.000250
  0
LTYPE
  2
HIDDEN
 70
    64
  3
 _ _ _ _ _ _ _ _ _ _ _ _ _ _ _ _ _ _ _ _ _ _
 72
    65
 73
     2
 40
0.000375
 49
0.000250
 49
-0.000125
  0
LTYPE
  2
CENTER
 70
    64
  3
____ _ ____ _ ____ _ ____ _ ____ _ ____ _ ____
 72
    65
 73
     4
 40
0.002000
 49
0.001250
 49
-0.000250
 49
0.000250
 49
-0.000250
  0
LTYPE
  2
PHANTOM
 70
    64
  3
_____ _ _ _____ _ _ _____ _ _ _____ _ _ ____
 72
    65
 73
     6
 40
0.002500
 49
0.001250
 49
-0.000250
 49
0.000250
 49
-0.000250
 49
0.000250
 49
-0.000250
  0
LTYPE
  2
DOT
 70
    64
  3
...............................................
 72
    65
 73
     2
 40
0.000250
 49
0.000000
 49
-0.000250
  0
LTYPE
  2
DASHDOT
 70
    64
  3
__ . __ . __ . __ . __ . __ . __ . __ . __ . __
 72
    65
 73
     4
 40
0.001000
 49
0.000500
 49
-0.000250
 49
0.000000
 49
-0.000250
  0
LTYPE
  2
BORDER
 70
    64
  3
__ __ . __ __ . __ __ . __ __ . __ __ . __ __
 72
    65
 73
     6
 40
0.001750
 49
0.000500
 49
-0.000250
 49
0.000500
 49
-0.000250
 49
0.000000
 49
-0.000250
  0
LTYPE
  2
DIVIDE
 70
    64
  3
__ . . __ . . __ . . __ . . __ . . __ . . __
 72
    65
 73
     6
 40
0.001250
 49
0.000500
 49
-0.000250
 49
0.000000
 49
-0.000250
 49
0.000000
 49
-0.000250
  0
LTYPE
  2
DOTDOT
 70
    64
  3
 . .  . .  . .  . .  . .  . . 
 72
    65
 73
     5
 40
0.000550
 49
-0.000250
 49
0.000000
 49
-0.000250
 49
0.000000
 49
-0.000250
  0
ENDTAB
  0
TABLE
  2
STYLE
 70
     0
  0
ENDTAB
  0
TABLE
  2
LAYER
 70
     2
  0
LAYER
  2
FOREGROUND
 70
    64
 62
     7
  6
CONTINUOUS
  0
LAYER
  2
BACKGROUND
 70
    65
 62
    -7
  6
CONTINUOUS
  0
ENDTAB
  0
ENDSEC
  0
SECTION
  2
ENTITIES
  0
POLYLINE
  8
FOREGROUND
  6
CONTINUOUS
 66
     1
 40
0.042000
 41
0.042000
 70
     1
  0
VERTEX
  8
FOREGROUND
  6
CONTINUOUS
 10
4.341000
 20
36.112999
  0
VERTEX
  8
FOREGROUND
  6
CONTINUOUS
 10
7.418192
 20
36.112999
  0
VERTEX
  8
FOREGROUND
  6
CONTINUOUS
 10
7.410458
 20
36.156838
  0
VERTEX
  8
FOREGROUND
  6
CONTINUOUS
 10
7.405817
 20
36.202884
  0
VERTEX
  8
FOREGROUND
  6
CONTINUOUS
 10
7.404271
 20
36.251136
  0
VERTEX
  8
FOREGROUND
  6
CONTINUOUS
 10
7.404271
 20
36.488893
  0
VERTEX
  8
FOREGROUND
  6
CONTINUOUS
 10
4.355526
 20
36.488893
  0
VERTEX
  8
FOREGROUND
  6
CONTINUOUS
 10
4.351099
 20
36.493596
  0
VERTEX
  8
FOREGROUND
  6
CONTINUOUS
 10
4.347694
 20
36.497904
  0
VERTEX
  8
FOREGROUND
  6
CONTINUOUS
 10
4.345320
 20
36.501817
  0
VERTEX
  8
FOREGROUND
  6
CONTINUOUS
 10
4.295598
 20
36.589990
  0
VERTEX
  8
FOREGROUND
  6
CONTINUOUS
 10
4.246544
 20
36.665912
  0
VERTEX
  8
FOREGROUND
  6
CONTINUOUS
 10
4.198158
 20
36.729359
  0
VERTEX
  8
FOREGROUND
  6
CONTINUOUS
 10
4.155223
 20
36.776469
  0
VERTEX
  8
FOREGROUND
  6
CONTINUOUS
 10
4.106947
 20
36.821577
  0
VERTEX
  8
FOREGROUND
  6
CONTINUOUS
 10
4.053999
 20
36.864680
  0
VERTEX
  8
FOREGROUND
  6
CONTINUOUS
 10
7.330270
 20
36.864681
  0
VERTEX
  8
FOREGROUND
  6
CONTINUOUS
 10
7.330270
 20
36.965000
  0
VERTEX
  8
FOREGROUND
  6
CONTINUOUS
 10
3.846999
 20
36.965000
  0
VERTEX
  8
FOREGROUND
  6
CONTINUOUS
 10
3.823703
 20
36.968334
  0
VERTEX
  8
FOREGROUND
  6
CONTINUOUS
 10
3.799963
 20
36.970333
  0
VERTEX
  8
FOREGROUND
  6
CONTINUOUS
 10
3.776000
 20
36.970999
  0
VERTEX
  8
FOREGROUND
  6
CONTINUOUS
 10
3.751000
 20
36.970333
  0
VERTEX
  8
FOREGROUND
  6
CONTINUOUS
 10
3.726000
 20
36.968334
  0
VERTEX
  8
FOREGROUND
  6
CONTINUOUS
 10
3.700999
 20
36.965000
  0
VERTEX
  8
FOREGROUND
  6
CONTINUOUS
 10
3.618000
 20
36.965000
  0
VERTEX
  8
FOREGROUND
  6
CONTINUOUS
 10
3.619408
 20
36.980999
  0
VERTEX
  8
FOREGROUND
  6
CONTINUOUS
 10
3.619927
 20
36.996999
  0
VERTEX
  8
FOREGROUND
  6
CONTINUOUS
 10
3.620001
 20
37.012999
  0
VERTEX
  8
FOREGROUND
  6
CONTINUOUS
 10
3.619927
 20
37.030740
  0
VERTEX
  8
FOREGROUND
  6
CONTINUOUS
 10
3.619408
 20
37.048259
  0
VERTEX
  8
FOREGROUND
  6
CONTINUOUS
 10
3.618000
 20
37.065999
  0
VERTEX
  8
FOREGROUND
  6
CONTINUOUS
 10
3.618000
 20
37.066703
  0
VERTEX
  8
FOREGROUND
  6
CONTINUOUS
 10
3.618000
 20
37.066962
  0
VERTEX
  8
FOREGROUND
  6
CONTINUOUS
 10
3.618000
 20
37.066999
  0
VERTEX
  8
FOREGROUND
  6
CONTINUOUS
 10
3.666001
 20
37.138999
  0
VERTEX
  8
FOREGROUND
  6
CONTINUOUS
 10
3.667000
 20
37.140962
  0
VERTEX
  8
FOREGROUND
  6
CONTINUOUS
 10
3.668000
 20
37.142703
  0
VERTEX
  8
FOREGROUND
  6
CONTINUOUS
 10
3.669000
 20
37.144000
  0
VERTEX
  8
FOREGROUND
  6
CONTINUOUS
 10
3.784963
 20
37.376592
  0
VERTEX
  8
FOREGROUND
  6
CONTINUOUS
 10
3.854703
 20
37.654073
  0
VERTEX
  8
FOREGROUND
  6
CONTINUOUS
 10
3.877999
 20
37.975999
  0
VERTEX
  8
FOREGROUND
  6
CONTINUOUS
 10
3.876369
 20
38.065740
  0
VERTEX
  8
FOREGROUND
  6
CONTINUOUS
 10
3.871629
 20
38.157259
  0
VERTEX
  8
FOREGROUND
  6
CONTINUOUS
 10
3.863999
 20
38.251000
  0
VERTEX
  8
FOREGROUND
  6
CONTINUOUS
 10
3.851333
 20
38.353926
  0
VERTEX
  8
FOREGROUND
  6
CONTINUOUS
 10
3.831333
 20
38.484407
  0
VERTEX
  8
FOREGROUND
  6
CONTINUOUS
 10
3.804000
 20
38.642000
  0
VERTEX
  8
FOREGROUND
  6
CONTINUOUS
 10
3.799001
 20
38.665999
  0
VERTEX
  8
FOREGROUND
  6
CONTINUOUS
 10
3.764704
 20
38.872333
  0
VERTEX
  8
FOREGROUND
  6
CONTINUOUS
 10
3.743963
 20
39.037333
  0
VERTEX
  8
FOREGROUND
  6
CONTINUOUS
 10
3.737000
 20
39.160999
  0
VERTEX
  8
FOREGROUND
  6
CONTINUOUS
 10
3.737630
 20
39.192036
  0
VERTEX
  8
FOREGROUND
  6
CONTINUOUS
 10
3.739370
 20
39.223296
  0
VERTEX
  8
FOREGROUND
  6
CONTINUOUS
 10
3.742000
 20
39.255000
  0
VERTEX
  8
FOREGROUND
  6
CONTINUOUS
 10
3.750222
 20
39.305703
  0
VERTEX
  8
FOREGROUND
  6
CONTINUOUS
 10
3.766444
 20
39.351962
  0
VERTEX
  8
FOREGROUND
  6
CONTINUOUS
 10
3.790000
 20
39.393999
  0
VERTEX
  8
FOREGROUND
  6
CONTINUOUS
 10
3.819001
 20
39.428704
  0
VERTEX
  8
FOREGROUND
  6
CONTINUOUS
 10
3.852000
 20
39.452963
  0
VERTEX
  8
FOREGROUND
  6
CONTINUOUS
 10
3.888999
 20
39.467000
  0
VERTEX
  8
FOREGROUND
  6
CONTINUOUS
 10
3.891000
 20
39.467259
  0
VERTEX
  8
FOREGROUND
  6
CONTINUOUS
 10
3.893000
 20
39.467740
  0
VERTEX
  8
FOREGROUND
  6
CONTINUOUS
 10
3.895000
 20
39.467999
  0
VERTEX
  8
FOREGROUND
  6
CONTINUOUS
 10
3.898297
 20
39.468702
  0
VERTEX
  8
FOREGROUND
  6
CONTINUOUS
 10
3.904037
 20
39.468962
  0
VERTEX
  8
FOREGROUND
  6
CONTINUOUS
 10
3.912000
 20
39.468999
  0
VERTEX
  8
FOREGROUND
  6
CONTINUOUS
 10
3.952703
 20
39.465628
  0
VERTEX
  8
FOREGROUND
  6
CONTINUOUS
 10
3.990963
 20
39.455369
  0
VERTEX
  8
FOREGROUND
  6
CONTINUOUS
 10
4.027001
 20
39.437999
  0
VERTEX
  8
FOREGROUND
  6
CONTINUOUS
 10
4.041963
 20
39.427333
  0
VERTEX
  8
FOREGROUND
  6
CONTINUOUS
 10
4.056703
 20
39.415333
  0
VERTEX
  8
FOREGROUND
  6
CONTINUOUS
 10
4.071001
 20
39.401998
  0
VERTEX
  8
FOREGROUND
  6
CONTINUOUS
 10
4.158999
 20
39.311999
  0
VERTEX
  8
FOREGROUND
  6
CONTINUOUS
 10
4.220001
 20
39.407999
  0
VERTEX
  8
FOREGROUND
  6
CONTINUOUS
 10
4.222741
 20
39.411740
  0
VERTEX
  8
FOREGROUND
  6
CONTINUOUS
 10
4.225259
 20
39.415258
  0
VERTEX
  8
FOREGROUND
  6
CONTINUOUS
 10
4.228000
 20
39.418999
  0
VERTEX
  8
FOREGROUND
  6
CONTINUOUS
 10
4.263333
 20
39.489926
  0
VERTEX
  8
FOREGROUND
  6
CONTINUOUS
 10
4.287333
 20
39.570407
  0
VERTEX
  8
FOREGROUND
  6
CONTINUOUS
 10
4.300000
 20
39.660000
  0
VERTEX
  8
FOREGROUND
  6
CONTINUOUS
 10
4.300962
 20
39.679296
  0
VERTEX
  8
FOREGROUND
  6
CONTINUOUS
 10
4.301704
 20
39.699036
  0
VERTEX
  8
FOREGROUND
  6
CONTINUOUS
 10
4.302000
 20
39.718999
  0
VERTEX
  8
FOREGROUND
  6
CONTINUOUS
 10
4.302000
 20
39.723999
  0
VERTEX
  8
FOREGROUND
  6
CONTINUOUS
 10
4.302000
 20
39.728999
  0
VERTEX
  8
FOREGROUND
  6
CONTINUOUS
 10
4.302000
 20
39.733999
  0
VERTEX
  8
FOREGROUND
  6
CONTINUOUS
 10
4.301407
 20
39.760000
  0
VERTEX
  8
FOREGROUND
  6
CONTINUOUS
 10
4.299926
 20
39.786000
  0
VERTEX
  8
FOREGROUND
  6
CONTINUOUS
 10
4.298000
 20
39.811999
  0
VERTEX
  8
FOREGROUND
  6
CONTINUOUS
 10
4.291333
 20
39.862555
  0
VERTEX
  8
FOREGROUND
  6
CONTINUOUS
 10
4.281333
 20
39.911777
  0
VERTEX
  8
FOREGROUND
  6
CONTINUOUS
 10
4.267999
 20
39.958999
  0
VERTEX
  8
FOREGROUND
  6
CONTINUOUS
 10
4.286037
 20
39.956370
  0
VERTEX
  8
FOREGROUND
  6
CONTINUOUS
 10
4.304296
 20
39.954629
  0
VERTEX
  8
FOREGROUND
  6
CONTINUOUS
 10
4.323000
 20
39.953999
  0
VERTEX
  8
FOREGROUND
  6
CONTINUOUS
 10
4.392333
 20
39.962629
  0
VERTEX
  8
FOREGROUND
  6
CONTINUOUS
 10
4.454333
 20
39.988369
  0
VERTEX
  8
FOREGROUND
  6
CONTINUOUS
 10
4.509000
 20
40.030999
  0
VERTEX
  8
FOREGROUND
  6
CONTINUOUS
 10
4.551630
 20
40.085925
  0
VERTEX
  8
FOREGROUND
  6
CONTINUOUS
 10
4.577370
 20
40.148407
  0
VERTEX
  8
FOREGROUND
  6
CONTINUOUS
 10
4.586000
 20
40.218000
  0
VERTEX
  8
FOREGROUND
  6
CONTINUOUS
 10
4.577370
 20
40.286629
  0
VERTEX
  8
FOREGROUND
  6
CONTINUOUS
 10
4.551630
 20
40.348369
  0
VERTEX
  8
FOREGROUND
  6
CONTINUOUS
 10
4.509000
 20
40.402999
  0
VERTEX
  8
FOREGROUND
  6
CONTINUOUS
 10
4.454333
 20
40.445629
  0
VERTEX
  8
FOREGROUND
  6
CONTINUOUS
 10
4.392333
 20
40.471369
  0
VERTEX
  8
FOREGROUND
  6
CONTINUOUS
 10
4.323000
 20
40.479999
  0
VERTEX
  8
FOREGROUND
  6
CONTINUOUS
 10
4.254371
 20
40.471369
  0
VERTEX
  8
FOREGROUND
  6
CONTINUOUS
 10
4.192630
 20
40.445629
  0
VERTEX
  8
FOREGROUND
  6
CONTINUOUS
 10
4.138001
 20
40.402999
  0
VERTEX
  8
FOREGROUND
  6
CONTINUOUS
 10
4.103963
 20
40.362740
  0
VERTEX
  8
FOREGROUND
  6
CONTINUOUS
 10
4.079703
 20
40.318259
  0
VERTEX
  8
FOREGROUND
  6
CONTINUOUS
 10
4.065000
 20
40.269999
  0
VERTEX
  8
FOREGROUND
  6
CONTINUOUS
 10
3.972074
 20
40.336962
  0
VERTEX
  8
FOREGROUND
  6
CONTINUOUS
 10
3.869593
 20
40.383703
  0
VERTEX
  8
FOREGROUND
  6
CONTINUOUS
 10
3.758000
 20
40.409999
  0
VERTEX
  8
FOREGROUND
  6
CONTINUOUS
 10
3.723964
 20
40.413333
  0
VERTEX
  8
FOREGROUND
  6
CONTINUOUS
 10
3.689704
 20
40.415333
  0
VERTEX
  8
FOREGROUND
  6
CONTINUOUS
 10
3.655001
 20
40.416000
  0
VERTEX
  8
FOREGROUND
  6
CONTINUOUS
 10
3.456038
 20
40.389666
  0
VERTEX
  8
FOREGROUND
  6
CONTINUOUS
 10
3.279296
 20
40.310666
  0
VERTEX
  8
FOREGROUND
  6
CONTINUOUS
 10
3.125000
 20
40.179000
  0
VERTEX
  8
FOREGROUND
  6
CONTINUOUS
 10
3.121000
 20
40.174259
  0
VERTEX
  8
FOREGROUND
  6
CONTINUOUS
 10
3.117001
 20
40.169740
  0
VERTEX
  8
FOREGROUND
  6
CONTINUOUS
 10
3.113001
 20
40.165000
  0
VERTEX
  8
FOREGROUND
  6
CONTINUOUS
 10
3.006333
 20
40.009666
  0
VERTEX
  8
FOREGROUND
  6
CONTINUOUS
 10
2.942333
 20
39.837666
  0
VERTEX
  8
FOREGROUND
  6
CONTINUOUS
 10
2.921000
 20
39.649000
  0
VERTEX
  8
FOREGROUND
  6
CONTINUOUS
 10
2.921000
 20
39.646999
  0
VERTEX
  8
FOREGROUND
  6
CONTINUOUS
 10
2.921000
 20
39.639999
  0
VERTEX
  8
FOREGROUND
  6
CONTINUOUS
 10
2.918000
 20
39.645963
  0
VERTEX
  8
FOREGROUND
  6
CONTINUOUS
 10
2.915000
 20
39.651703
  0
VERTEX
  8
FOREGROUND
  6
CONTINUOUS
 10
2.912000
 20
39.656999
  0
VERTEX
  8
FOREGROUND
  6
CONTINUOUS
 10
2.857592
 20
39.750999
  0
VERTEX
  8
FOREGROUND
  6
CONTINUOUS
 10
2.800074
 20
39.836999
  0
VERTEX
  8
FOREGROUND
  6
CONTINUOUS
 10
2.739000
 20
39.914999
  0
VERTEX
  8
FOREGROUND
  6
CONTINUOUS
 10
2.704408
 20
39.954333
  0
VERTEX
  8
FOREGROUND
  6
CONTINUOUS
 10
2.668926
 20
39.990333
  0
VERTEX
  8
FOREGROUND
  6
CONTINUOUS
 10
2.633000
 20
40.023000
  0
VERTEX
  8
FOREGROUND
  6
CONTINUOUS
 10
2.501667
 20
40.115370
  0
VERTEX
  8
FOREGROUND
  6
CONTINUOUS
 10
2.361668
 20
40.170629
  0
VERTEX
  8
FOREGROUND
  6
CONTINUOUS
 10
2.213001
 20
40.188999
  0
VERTEX
  8
FOREGROUND
  6
CONTINUOUS
 10
2.180075
 20
40.188332
  0
VERTEX
  8
FOREGROUND
  6
CONTINUOUS
 10
2.147593
 20
40.186333
  0
VERTEX
  8
FOREGROUND
  6
CONTINUOUS
 10
2.116000
 20
40.183000
  0
VERTEX
  8
FOREGROUND
  6
CONTINUOUS
 10
2.084334
 20
40.179037
  0
VERTEX
  8
FOREGROUND
  6
CONTINUOUS
 10
2.053334
 20
40.173296
  0
VERTEX
  8
FOREGROUND
  6
CONTINUOUS
 10
2.023000
 20
40.165999
  0
VERTEX
  8
FOREGROUND
  6
CONTINUOUS
 10
2.012741
 20
40.162740
  0
VERTEX
  8
FOREGROUND
  6
CONTINUOUS
 10
2.002260
 20
40.159259
  0
VERTEX
  8
FOREGROUND
  6
CONTINUOUS
 10
1.992001
 20
40.156000
  0
VERTEX
  8
FOREGROUND
  6
CONTINUOUS
 10
1.926148
 20
40.125328
  0
VERTEX
  8
FOREGROUND
  6
CONTINUOUS
 10
1.879851
 20
40.085129
  0
VERTEX
  8
FOREGROUND
  6
CONTINUOUS
 10
1.852000
 20
40.035124
  0
VERTEX
  8
FOREGROUND
  6
CONTINUOUS
 10
1.852000
 20
36.965000
  0
VERTEX
  8
FOREGROUND
  6
CONTINUOUS
 10
1.602000
 20
36.965000
  0
VERTEX
  8
FOREGROUND
  6
CONTINUOUS
 10
1.602000
 20
40.495999
  0
VERTEX
  8
FOREGROUND
  6
CONTINUOUS
 10
1.868519
 20
40.503827
  0
VERTEX
  8
FOREGROUND
  6
CONTINUOUS
 10
2.143540
 20
40.520419
  0
VERTEX
  8
FOREGROUND
  6
CONTINUOUS
 10
2.427114
 20
40.545723
  0
VERTEX
  8
FOREGROUND
  6
CONTINUOUS
 10
2.719295
 20
40.579685
  0
VERTEX
  8
FOREGROUND
  6
CONTINUOUS
 10
3.020134
 20
40.622253
  0
VERTEX
  8
FOREGROUND
  6
CONTINUOUS
 10
3.329686
 20
40.673375
  0
VERTEX
  8
FOREGROUND
  6
CONTINUOUS
 10
3.648001
 20
40.732999
  0
VERTEX
  8
FOREGROUND
  6
CONTINUOUS
 10
3.648001
 20
40.732999
  0
VERTEX
  8
FOREGROUND
  6
CONTINUOUS
 10
3.837520
 20
40.771992
  0
VERTEX
  8
FOREGROUND
  6
CONTINUOUS
 10
4.049094
 20
40.818437
  0
VERTEX
  8
FOREGROUND
  6
CONTINUOUS
 10
4.282746
 20
40.872289
  0
VERTEX
  8
FOREGROUND
  6
CONTINUOUS
 10
4.538500
 20
40.933499
  0
VERTEX
  8
FOREGROUND
  6
CONTINUOUS
 10
4.816379
 20
41.002023
  0
VERTEX
  8
FOREGROUND
  6
CONTINUOUS
 10
5.116406
 20
41.077812
  0
VERTEX
  8
FOREGROUND
  6
CONTINUOUS
 10
5.438605
 20
41.160820
  0
VERTEX
  8
FOREGROUND
  6
CONTINUOUS
 10
5.783000
 20
41.251000
  0
VERTEX
  8
FOREGROUND
  6
CONTINUOUS
 10
6.125519
 20
41.341379
  0
VERTEX
  8
FOREGROUND
  6
CONTINUOUS
 10
6.445843
 20
41.424281
  0
VERTEX
  8
FOREGROUND
  6
CONTINUOUS
 10
6.743996
 20
41.499730
  0
VERTEX
  8
FOREGROUND
  6
CONTINUOUS
 10
7.020000
 20
41.567749
  0
VERTEX
  8
FOREGROUND
  6
CONTINUOUS
 10
7.273879
 20
41.628362
  0
VERTEX
  8
FOREGROUND
  6
CONTINUOUS
 10
7.505656
 20
41.681593
  0
VERTEX
  8
FOREGROUND
  6
CONTINUOUS
 10
7.715356
 20
41.727464
  0
VERTEX
  8
FOREGROUND
  6
CONTINUOUS
 10
7.903001
 20
41.765999
  0
VERTEX
  8
FOREGROUND
  6
CONTINUOUS
 10
8.190719
 20
41.820515
  0
VERTEX
  8
FOREGROUND
  6
CONTINUOUS
 10
8.471125
 20
41.867812
  0
VERTEX
  8
FOREGROUND
  6
CONTINUOUS
 10
8.744219
 20
41.907890
  0
VERTEX
  8
FOREGROUND
  6
CONTINUOUS
 10
9.010000
 20
41.940750
  0
VERTEX
  8
FOREGROUND
  6
CONTINUOUS
 10
9.268469
 20
41.966390
  0
VERTEX
  8
FOREGROUND
  6
CONTINUOUS
 10
9.519625
 20
41.984812
  0
VERTEX
  8
FOREGROUND
  6
CONTINUOUS
 10
9.763469
 20
41.996015
  0
VERTEX
  8
FOREGROUND
  6
CONTINUOUS
 10
10.000001
 20
41.999999
  0
VERTEX
  8
FOREGROUND
  6
CONTINUOUS
 10
10.236534
 20
41.996015
  0
VERTEX
  8
FOREGROUND
  6
CONTINUOUS
 10
10.480391
 20
41.984812
  0
VERTEX
  8
FOREGROUND
  6
CONTINUOUS
 10
10.731584
 20
41.966390
  0
VERTEX
  8
FOREGROUND
  6
CONTINUOUS
 10
10.990125
 20
41.940750
  0
VERTEX
  8
FOREGROUND
  6
CONTINUOUS
 10
11.256025
 20
41.907890
  0
VERTEX
  8
FOREGROUND
  6
CONTINUOUS
 10
11.529297
 20
41.867812
  0
VERTEX
  8
FOREGROUND
  6
CONTINUOUS
 10
11.809951
 20
41.820515
  0
VERTEX
  8
FOREGROUND
  6
CONTINUOUS
 10
12.098000
 20
41.765999
  0
VERTEX
  8
FOREGROUND
  6
CONTINUOUS
 10
12.285357
 20
41.727464
  0
VERTEX
  8
FOREGROUND
  6
CONTINUOUS
 10
12.494922
 20
41.681593
  0
VERTEX
  8
FOREGROUND
  6
CONTINUOUS
 10
12.726682
 20
41.628362
  0
VERTEX
  8
FOREGROUND
  6
CONTINUOUS
 10
12.980625
 20
41.567749
  0
VERTEX
  8
FOREGROUND
  6
CONTINUOUS
 10
13.256740
 20
41.499730
  0
VERTEX
  8
FOREGROUND
  6
CONTINUOUS
 10
13.555016
 20
41.424281
  0
VERTEX
  8
FOREGROUND
  6
CONTINUOUS
 10
13.875440
 20
41.341379
  0
VERTEX
  8
FOREGROUND
  6
CONTINUOUS
 10
14.218001
 20
41.251000
  0
VERTEX
  8
FOREGROUND
  6
CONTINUOUS
 10
14.562393
 20
41.160820
  0
VERTEX
  8
FOREGROUND
  6
CONTINUOUS
 10
14.884578
 20
41.077812
  0
VERTEX
  8
FOREGROUND
  6
CONTINUOUS
 10
15.184568
 20
41.002023
  0
VERTEX
  8
FOREGROUND
  6
CONTINUOUS
 10
15.462375
 20
40.933499
  0
VERTEX
  8
FOREGROUND
  6
CONTINUOUS
 10
15.718009
 20
40.872289
  0
VERTEX
  8
FOREGROUND
  6
CONTINUOUS
 10
15.951484
 20
40.818437
  0
VERTEX
  8
FOREGROUND
  6
CONTINUOUS
 10
16.162810
 20
40.771992
  0
VERTEX
  8
FOREGROUND
  6
CONTINUOUS
 10
16.351999
 20
40.732999
  0
VERTEX
  8
FOREGROUND
  6
CONTINUOUS
 10
16.670367
 20
40.673375
  0
VERTEX
  8
FOREGROUND
  6
CONTINUOUS
 10
16.980040
 20
40.622253
  0
VERTEX
  8
FOREGROUND
  6
CONTINUOUS
 10
17.281020
 20
40.579685
  0
VERTEX
  8
FOREGROUND
  6
CONTINUOUS
 10
17.573305
 20
40.545723
  0
VERTEX
  8
FOREGROUND
  6
CONTINUOUS
 10
17.856897
 20
40.520419
  0
VERTEX
  8
FOREGROUND
  6
CONTINUOUS
 10
18.131795
 20
40.503827
  0
VERTEX
  8
FOREGROUND
  6
CONTINUOUS
 10
18.397999
 20
40.495999
  0
VERTEX
  8
FOREGROUND
  6
CONTINUOUS
 10
18.397999
 20
36.965000
  0
VERTEX
  8
FOREGROUND
  6
CONTINUOUS
 10
18.148000
 20
36.965000
  0
VERTEX
  8
FOREGROUND
  6
CONTINUOUS
 10
18.147001
 20
40.034688
  0
VERTEX
  8
FOREGROUND
  6
CONTINUOUS
 10
18.124815
 20
40.078102
  0
VERTEX
  8
FOREGROUND
  6
CONTINUOUS
 10
18.089518
 20
40.114253
  0
VERTEX
  8
FOREGROUND
  6
CONTINUOUS
 10
18.039999
 20
40.143001
  0
VERTEX
  8
FOREGROUND
  6
CONTINUOUS
 10
18.020333
 20
40.151407
  0
VERTEX
  8
FOREGROUND
  6
CONTINUOUS
 10
17.999333
 20
40.158925
  0
VERTEX
  8
FOREGROUND
  6
CONTINUOUS
 10
17.976999
 20
40.165999
  0
VERTEX
  8
FOREGROUND
  6
CONTINUOUS
 10
17.943666
 20
40.173999
  0
VERTEX
  8
FOREGROUND
  6
CONTINUOUS
 10
17.909667
 20
40.180000
  0
VERTEX
  8
FOREGROUND
  6
CONTINUOUS
 10
17.874999
 20
40.183999
  0
VERTEX
  8
FOREGROUND
  6
CONTINUOUS
 10
17.845963
 20
40.186629
  0
VERTEX
  8
FOREGROUND
  6
CONTINUOUS
 10
17.816704
 20
40.188369
  0
VERTEX
  8
FOREGROUND
  6
CONTINUOUS
 10
17.786999
 20
40.188999
  0
VERTEX
  8
FOREGROUND
  6
CONTINUOUS
 10
17.597259
 20
40.158370
  0
VERTEX
  8
FOREGROUND
  6
CONTINUOUS
 10
17.421740
 20
40.066629
  0
VERTEX
  8
FOREGROUND
  6
CONTINUOUS
 10
17.260000
 20
39.914000
  0
VERTEX
  8
FOREGROUND
  6
CONTINUOUS
 10
17.195963
 20
39.831407
  0
VERTEX
  8
FOREGROUND
  6
CONTINUOUS
 10
17.135704
 20
39.739925
  0
VERTEX
  8
FOREGROUND
  6
CONTINUOUS
 10
17.079000
 20
39.639999
  0
VERTEX
  8
FOREGROUND
  6
CONTINUOUS
 10
17.079000
 20
39.644999
  0
VERTEX
  8
FOREGROUND
  6
CONTINUOUS
 10
17.079000
 20
39.646000
  0
VERTEX
  8
FOREGROUND
  6
CONTINUOUS
 10
17.079000
 20
39.646999
  0
VERTEX
  8
FOREGROUND
  6
CONTINUOUS
 10
17.079000
 20
39.647999
  0
VERTEX
  8
FOREGROUND
  6
CONTINUOUS
 10
17.078963
 20
39.660703
  0
VERTEX
  8
FOREGROUND
  6
CONTINUOUS
 10
17.078703
 20
39.672962
  0
VERTEX
  8
FOREGROUND
  6
CONTINUOUS
 10
17.077999
 20
39.684999
  0
VERTEX
  8
FOREGROUND
  6
CONTINUOUS
 10
17.063370
 20
39.811037
  0
VERTEX
  8
FOREGROUND
  6
CONTINUOUS
 10
17.029630
 20
39.929296
  0
VERTEX
  8
FOREGROUND
  6
CONTINUOUS
 10
16.976999
 20
40.039999
  0
VERTEX
  8
FOREGROUND
  6
CONTINUOUS
 10
16.947037
 20
40.088036
  0
VERTEX
  8
FOREGROUND
  6
CONTINUOUS
 10
16.913297
 20
40.134296
  0
VERTEX
  8
FOREGROUND
  6
CONTINUOUS
 10
16.876000
 20
40.179000
  0
VERTEX
  8
FOREGROUND
  6
CONTINUOUS
 10
16.721444
 20
40.310666
  0
VERTEX
  8
FOREGROUND
  6
CONTINUOUS
 10
16.544222
 20
40.389666
  0
VERTEX
  8
FOREGROUND
  6
CONTINUOUS
 10
16.344999
 20
40.416000
  0
VERTEX
  8
FOREGROUND
  6
CONTINUOUS
 10
16.310296
 20
40.415333
  0
VERTEX
  8
FOREGROUND
  6
CONTINUOUS
 10
16.276037
 20
40.413333
  0
VERTEX
  8
FOREGROUND
  6
CONTINUOUS
 10
16.242000
 20
40.409999
  0
VERTEX
  8
FOREGROUND
  6
CONTINUOUS
 10
16.130666
 20
40.383703
  0
VERTEX
  8
FOREGROUND
  6
CONTINUOUS
 10
16.028666
 20
40.336962
  0
VERTEX
  8
FOREGROUND
  6
CONTINUOUS
 10
15.936001
 20
40.269999
  0
VERTEX
  8
FOREGROUND
  6
CONTINUOUS
 10
15.921296
 20
40.318259
  0
VERTEX
  8
FOREGROUND
  6
CONTINUOUS
 10
15.897037
 20
40.362740
  0
VERTEX
  8
FOREGROUND
  6
CONTINUOUS
 10
15.863000
 20
40.402999
  0
VERTEX
  8
FOREGROUND
  6
CONTINUOUS
 10
15.808333
 20
40.445629
  0
VERTEX
  8
FOREGROUND
  6
CONTINUOUS
 10
15.746333
 20
40.471369
  0
VERTEX
  8
FOREGROUND
  6
CONTINUOUS
 10
15.677000
 20
40.479999
  0
VERTEX
  8
FOREGROUND
  6
CONTINUOUS
 10
15.607667
 20
40.471369
  0
VERTEX
  8
FOREGROUND
  6
CONTINUOUS
 10
15.545667
 20
40.445629
  0
VERTEX
  8
FOREGROUND
  6
CONTINUOUS
 10
15.491000
 20
40.402999
  0
VERTEX
  8
FOREGROUND
  6
CONTINUOUS
 10
15.448370
 20
40.348369
  0
VERTEX
  8
FOREGROUND
  6
CONTINUOUS
 10
15.422629
 20
40.286629
  0
VERTEX
  8
FOREGROUND
  6
CONTINUOUS
 10
15.414000
 20
40.218000
  0
VERTEX
  8
FOREGROUND
  6
CONTINUOUS
 10
15.422629
 20
40.148407
  0
VERTEX
  8
FOREGROUND
  6
CONTINUOUS
 10
15.448370
 20
40.085925
  0
VERTEX
  8
FOREGROUND
  6
CONTINUOUS
 10
15.491000
 20
40.030999
  0
VERTEX
  8
FOREGROUND
  6
CONTINUOUS
 10
15.545667
 20
39.988369
  0
VERTEX
  8
FOREGROUND
  6
CONTINUOUS
 10
15.607667
 20
39.962629
  0
VERTEX
  8
FOREGROUND
  6
CONTINUOUS
 10
15.677000
 20
39.953999
  0
VERTEX
  8
FOREGROUND
  6
CONTINUOUS
 10
15.696371
 20
39.954629
  0
VERTEX
  8
FOREGROUND
  6
CONTINUOUS
 10
15.714630
 20
39.956370
  0
VERTEX
  8
FOREGROUND
  6
CONTINUOUS
 10
15.732000
 20
39.958999
  0
VERTEX
  8
FOREGROUND
  6
CONTINUOUS
 10
15.718666
 20
39.911333
  0
VERTEX
  8
FOREGROUND
  6
CONTINUOUS
 10
15.708666
 20
39.862333
  0
VERTEX
  8
FOREGROUND
  6
CONTINUOUS
 10
15.702000
 20
39.811999
  0
VERTEX
  8
FOREGROUND
  6
CONTINUOUS
 10
15.699630
 20
39.781000
  0
VERTEX
  8
FOREGROUND
  6
CONTINUOUS
 10
15.698370
 20
39.749999
  0
VERTEX
  8
FOREGROUND
  6
CONTINUOUS
 10
15.698000
 20
39.718999
  0
VERTEX
  8
FOREGROUND
  6
CONTINUOUS
 10
15.702296
 20
39.637332
  0
VERTEX
  8
FOREGROUND
  6
CONTINUOUS
 10
15.715037
 20
39.562332
  0
VERTEX
  8
FOREGROUND
  6
CONTINUOUS
 10
15.735999
 20
39.493999
  0
VERTEX
  8
FOREGROUND
  6
CONTINUOUS
 10
15.746703
 20
39.467666
  0
VERTEX
  8
FOREGROUND
  6
CONTINUOUS
 10
15.758963
 20
39.442666
  0
VERTEX
  8
FOREGROUND
  6
CONTINUOUS
 10
15.772999
 20
39.418999
  0
VERTEX
  8
FOREGROUND
  6
CONTINUOUS
 10
15.774333
 20
39.416037
  0
VERTEX
  8
FOREGROUND
  6
CONTINUOUS
 10
15.776333
 20
39.413295
  0
VERTEX
  8
FOREGROUND
  6
CONTINUOUS
 10
15.779000
 20
39.410998
  0
VERTEX
  8
FOREGROUND
  6
CONTINUOUS
 10
15.841000
 20
39.311999
  0
VERTEX
  8
FOREGROUND
  6
CONTINUOUS
 10
15.928999
 20
39.401998
  0
VERTEX
  8
FOREGROUND
  6
CONTINUOUS
 10
15.936999
 20
39.409666
  0
VERTEX
  8
FOREGROUND
  6
CONTINUOUS
 10
15.945000
 20
39.416666
  0
VERTEX
  8
FOREGROUND
  6
CONTINUOUS
 10
15.953000
 20
39.423000
  0
VERTEX
  8
FOREGROUND
  6
CONTINUOUS
 10
15.994259
 20
39.448703
  0
VERTEX
  8
FOREGROUND
  6
CONTINUOUS
 10
16.039740
 20
39.463962
  0
VERTEX
  8
FOREGROUND
  6
CONTINUOUS
 10
16.088999
 20
39.468999
  0
VERTEX
  8
FOREGROUND
  6
CONTINUOUS
 10
16.096963
 20
39.468962
  0
VERTEX
  8
FOREGROUND
  6
CONTINUOUS
 10
16.102703
 20
39.468702
  0
VERTEX
  8
FOREGROUND
  6
CONTINUOUS
 10
16.105999
 20
39.467999
  0
VERTEX
  8
FOREGROUND
  6
CONTINUOUS
 10
16.107999
 20
39.467740
  0
VERTEX
  8
FOREGROUND
  6
CONTINUOUS
 10
16.109999
 20
39.467259
  0
VERTEX
  8
FOREGROUND
  6
CONTINUOUS
 10
16.111999
 20
39.467000
  0
VERTEX
  8
FOREGROUND
  6
CONTINUOUS
 10
16.148296
 20
39.452963
  0
VERTEX
  8
FOREGROUND
  6
CONTINUOUS
 10
16.181037
 20
39.428704
  0
VERTEX
  8
FOREGROUND
  6
CONTINUOUS
 10
16.209999
 20
39.393999
  0
VERTEX
  8
FOREGROUND
  6
CONTINUOUS
 10
16.217667
 20
39.381703
  0
VERTEX
  8
FOREGROUND
  6
CONTINUOUS
 10
16.224667
 20
39.368962
  0
VERTEX
  8
FOREGROUND
  6
CONTINUOUS
 10
16.231001
 20
39.356000
  0
VERTEX
  8
FOREGROUND
  6
CONTINUOUS
 10
16.241000
 20
39.332370
  0
VERTEX
  8
FOREGROUND
  6
CONTINUOUS
 10
16.249000
 20
39.307629
  0
VERTEX
  8
FOREGROUND
  6
CONTINUOUS
 10
16.255000
 20
39.281999
  0
VERTEX
  8
FOREGROUND
  6
CONTINUOUS
 10
16.256000
 20
39.273222
  0
VERTEX
  8
FOREGROUND
  6
CONTINUOUS
 10
16.257000
 20
39.264444
  0
VERTEX
  8
FOREGROUND
  6
CONTINUOUS
 10
16.258000
 20
39.255000
  0
VERTEX
  8
FOREGROUND
  6
CONTINUOUS
 10
16.259963
 20
39.233999
  0
VERTEX
  8
FOREGROUND
  6
CONTINUOUS
 10
16.261704
 20
39.212999
  0
VERTEX
  8
FOREGROUND
  6
CONTINUOUS
 10
16.263000
 20
39.191999
  0
VERTEX
  8
FOREGROUND
  6
CONTINUOUS
 10
16.263000
 20
39.181999
  0
VERTEX
  8
FOREGROUND
  6
CONTINUOUS
 10
16.263000
 20
39.172000
  0
VERTEX
  8
FOREGROUND
  6
CONTINUOUS
 10
16.263000
 20
39.162000
  0
VERTEX
  8
FOREGROUND
  6
CONTINUOUS
 10
16.256037
 20
39.037370
  0
VERTEX
  8
FOREGROUND
  6
CONTINUOUS
 10
16.235296
 20
38.871629
  0
VERTEX
  8
FOREGROUND
  6
CONTINUOUS
 10
16.200999
 20
38.665000
  0
VERTEX
  8
FOREGROUND
  6
CONTINUOUS
 10
16.198999
 20
38.656000
  0
VERTEX
  8
FOREGROUND
  6
CONTINUOUS
 10
16.195999
 20
38.642000
  0
VERTEX
  8
FOREGROUND
  6
CONTINUOUS
 10
16.168666
 20
38.484407
  0
VERTEX
  8
FOREGROUND
  6
CONTINUOUS
 10
16.148666
 20
38.353926
  0
VERTEX
  8
FOREGROUND
  6
CONTINUOUS
 10
16.136001
 20
38.251000
  0
VERTEX
  8
FOREGROUND
  6
CONTINUOUS
 10
16.128630
 20
38.157259
  0
VERTEX
  8
FOREGROUND
  6
CONTINUOUS
 10
16.124370
 20
38.065740
  0
VERTEX
  8
FOREGROUND
  6
CONTINUOUS
 10
16.123000
 20
37.975999
  0
VERTEX
  8
FOREGROUND
  6
CONTINUOUS
 10
16.126667
 20
37.842629
  0
VERTEX
  8
FOREGROUND
  6
CONTINUOUS
 10
16.137667
 20
37.716370
  0
VERTEX
  8
FOREGROUND
  6
CONTINUOUS
 10
16.156000
 20
37.596999
  0
VERTEX
  8
FOREGROUND
  6
CONTINUOUS
 10
16.197370
 20
37.430036
  0
VERTEX
  8
FOREGROUND
  6
CONTINUOUS
 10
16.255629
 20
37.279296
  0
VERTEX
  8
FOREGROUND
  6
CONTINUOUS
 10
16.330999
 20
37.144999
  0
VERTEX
  8
FOREGROUND
  6
CONTINUOUS
 10
16.381999
 20
37.065999
  0
VERTEX
  8
FOREGROUND
  6
CONTINUOUS
 10
16.380592
 20
37.048259
  0
VERTEX
  8
FOREGROUND
  6
CONTINUOUS
 10
16.380073
 20
37.030740
  0
VERTEX
  8
FOREGROUND
  6
CONTINUOUS
 10
16.379999
 20
37.012999
  0
VERTEX
  8
FOREGROUND
  6
CONTINUOUS
 10
16.380073
 20
36.996999
  0
VERTEX
  8
FOREGROUND
  6
CONTINUOUS
 10
16.380592
 20
36.980999
  0
VERTEX
  8
FOREGROUND
  6
CONTINUOUS
 10
16.381999
 20
36.965000
  0
VERTEX
  8
FOREGROUND
  6
CONTINUOUS
 10
16.299001
 20
36.965000
  0
VERTEX
  8
FOREGROUND
  6
CONTINUOUS
 10
16.274000
 20
36.968334
  0
VERTEX
  8
FOREGROUND
  6
CONTINUOUS
 10
16.249000
 20
36.970333
  0
VERTEX
  8
FOREGROUND
  6
CONTINUOUS
 10
16.223999
 20
36.970999
  0
VERTEX
  8
FOREGROUND
  6
CONTINUOUS
 10
16.200037
 20
36.970333
  0
VERTEX
  8
FOREGROUND
  6
CONTINUOUS
 10
16.176296
 20
36.968334
  0
VERTEX
  8
FOREGROUND
  6
CONTINUOUS
 10
16.153000
 20
36.965000
  0
VERTEX
  8
FOREGROUND
  6
CONTINUOUS
 10
12.643730
 20
36.965000
  0
VERTEX
  8
FOREGROUND
  6
CONTINUOUS
 10
12.643730
 20
36.864681
  0
VERTEX
  8
FOREGROUND
  6
CONTINUOUS
 10
15.946486
 20
36.864681
  0
VERTEX
  8
FOREGROUND
  6
CONTINUOUS
 10
15.893539
 20
36.821578
  0
VERTEX
  8
FOREGROUND
  6
CONTINUOUS
 10
15.845264
 20
36.776470
  0
VERTEX
  8
FOREGROUND
  6
CONTINUOUS
 10
15.802328
 20
36.729359
  0
VERTEX
  8
FOREGROUND
  6
CONTINUOUS
 10
15.753943
 20
36.665911
  0
VERTEX
  8
FOREGROUND
  6
CONTINUOUS
 10
15.704888
 20
36.589990
  0
VERTEX
  8
FOREGROUND
  6
CONTINUOUS
 10
15.655166
 20
36.501817
  0
VERTEX
  8
FOREGROUND
  6
CONTINUOUS
 10
15.652792
 20
36.497904
  0
VERTEX
  8
FOREGROUND
  6
CONTINUOUS
 10
15.649387
 20
36.493596
  0
VERTEX
  8
FOREGROUND
  6
CONTINUOUS
 10
15.644960
 20
36.488893
  0
VERTEX
  8
FOREGROUND
  6
CONTINUOUS
 10
12.569729
 20
36.488893
  0
VERTEX
  8
FOREGROUND
  6
CONTINUOUS
 10
12.569729
 20
36.251136
  0
VERTEX
  8
FOREGROUND
  6
CONTINUOUS
 10
12.568183
 20
36.202883
  0
VERTEX
  8
FOREGROUND
  6
CONTINUOUS
 10
12.563542
 20
36.156838
  0
VERTEX
  8
FOREGROUND
  6
CONTINUOUS
 10
12.555808
 20
36.112999
  0
VERTEX
  8
FOREGROUND
  6
CONTINUOUS
 10
15.659514
 20
36.112999
  0
VERTEX
  8
FOREGROUND
  6
CONTINUOUS
 10
15.702330
 20
36.010820
  0
VERTEX
  8
FOREGROUND
  6
CONTINUOUS
 10
15.740855
 20
35.930594
  0
VERTEX
  8
FOREGROUND
  6
CONTINUOUS
 10
15.775299
 20
35.872323
  0
VERTEX
  8
FOREGROUND
  6
CONTINUOUS
 10
15.816381
 20
35.821200
  0
VERTEX
  8
FOREGROUND
  6
CONTINUOUS
 10
15.863692
 20
35.776093
  0
VERTEX
  8
FOREGROUND
  6
CONTINUOUS
 10
15.917453
 20
35.736999
  0
VERTEX
  8
FOREGROUND
  6
CONTINUOUS
 10
12.330184
 20
35.736999
  0
VERTEX
  8
FOREGROUND
  6
CONTINUOUS
 10
12.298052
 20
35.703418
  0
VERTEX
  8
FOREGROUND
  6
CONTINUOUS
 10
12.264334
 20
35.670419
  0
VERTEX
  8
FOREGROUND
  6
CONTINUOUS
 10
12.229030
 20
35.638000
  0
VERTEX
  8
FOREGROUND
  6
CONTINUOUS
 10
15.628000
 20
35.638000
  0
VERTEX
  8
FOREGROUND
  6
CONTINUOUS
 10
15.650001
 20
35.508000
  0
VERTEX
  8
FOREGROUND
  6
CONTINUOUS
 10
15.651742
 20
35.497407
  0
VERTEX
  8
FOREGROUND
  6
CONTINUOUS
 10
15.653261
 20
35.485926
  0
VERTEX
  8
FOREGROUND
  6
CONTINUOUS
 10
15.655000
 20
35.474001
  0
VERTEX
  8
FOREGROUND
  6
CONTINUOUS
 10
15.661592
 20
35.405703
  0
VERTEX
  8
FOREGROUND
  6
CONTINUOUS
 10
15.667074
 20
35.320961
  0
VERTEX
  8
FOREGROUND
  6
CONTINUOUS
 10
15.671001
 20
35.219999
  0
VERTEX
  8
FOREGROUND
  6
CONTINUOUS
 10
15.671001
 20
35.215999
  0
VERTEX
  8
FOREGROUND
  6
CONTINUOUS
 10
15.677629
 20
35.077666
  0
VERTEX
  8
FOREGROUND
  6
CONTINUOUS
 10
15.689370
 20
34.952666
  0
VERTEX
  8
FOREGROUND
  6
CONTINUOUS
 10
15.705999
 20
34.841001
  0
VERTEX
  8
FOREGROUND
  6
CONTINUOUS
 10
15.718739
 20
34.776666
  0
VERTEX
  8
FOREGROUND
  6
CONTINUOUS
 10
15.733258
 20
34.717666
  0
VERTEX
  8
FOREGROUND
  6
CONTINUOUS
 10
15.749999
 20
34.664001
  0
VERTEX
  8
FOREGROUND
  6
CONTINUOUS
 10
15.772074
 20
34.605333
  0
VERTEX
  8
FOREGROUND
  6
CONTINUOUS
 10
15.796591
 20
34.547332
  0
VERTEX
  8
FOREGROUND
  6
CONTINUOUS
 10
15.823997
 20
34.489999
  0
VERTEX
  8
FOREGROUND
  6
CONTINUOUS
 10
15.972332
 20
34.251999
  0
VERTEX
  8
FOREGROUND
  6
CONTINUOUS
 10
16.171334
 20
34.022000
  0
VERTEX
  8
FOREGROUND
  6
CONTINUOUS
 10
16.421001
 20
33.800001
  0
VERTEX
  8
FOREGROUND
  6
CONTINUOUS
 10
16.351334
 20
33.809741
  0
VERTEX
  8
FOREGROUND
  6
CONTINUOUS
 10
16.282333
 20
33.815259
  0
VERTEX
  8
FOREGROUND
  6
CONTINUOUS
 10
16.213998
 20
33.817000
  0
VERTEX
  8
FOREGROUND
  6
CONTINUOUS
 10
16.117739
 20
33.813259
  0
VERTEX
  8
FOREGROUND
  6
CONTINUOUS
 10
16.025259
 20
33.801740
  0
VERTEX
  8
FOREGROUND
  6
CONTINUOUS
 10
15.937000
 20
33.781998
  0
VERTEX
  8
FOREGROUND
  6
CONTINUOUS
 10
15.844630
 20
33.752962
  0
VERTEX
  8
FOREGROUND
  6
CONTINUOUS
 10
15.735370
 20
33.709703
  0
VERTEX
  8
FOREGROUND
  6
CONTINUOUS
 10
15.609000
 20
33.652002
  0
VERTEX
  8
FOREGROUND
  6
CONTINUOUS
 10
15.486297
 20
33.597296
  0
VERTEX
  8
FOREGROUND
  6
CONTINUOUS
 10
15.384037
 20
33.559037
  0
VERTEX
  8
FOREGROUND
  6
CONTINUOUS
 10
15.302000
 20
33.536999
  0
VERTEX
  8
FOREGROUND
  6
CONTINUOUS
 10
15.298001
 20
33.535999
  0
VERTEX
  8
FOREGROUND
  6
CONTINUOUS
 10
15.294000
 20
33.535000
  0
VERTEX
  8
FOREGROUND
  6
CONTINUOUS
 10
15.290000
 20
33.534001
  0
VERTEX
  8
FOREGROUND
  6
CONTINUOUS
 10
15.186000
 20
33.513999
  0
VERTEX
  8
FOREGROUND
  6
CONTINUOUS
 10
15.226999
 20
33.402998
  0
VERTEX
  8
FOREGROUND
  6
CONTINUOUS
 10
15.362998
 20
33.173963
  0
VERTEX
  8
FOREGROUND
  6
CONTINUOUS
 10
15.578998
 20
32.996704
  0
VERTEX
  8
FOREGROUND
  6
CONTINUOUS
 10
15.874998
 20
32.870998
  0
VERTEX
  8
FOREGROUND
  6
CONTINUOUS
 10
15.935628
 20
32.853962
  0
VERTEX
  8
FOREGROUND
  6
CONTINUOUS
 10
15.999370
 20
32.838703
  0
VERTEX
  8
FOREGROUND
  6
CONTINUOUS
 10
16.065999
 20
32.824999
  0
VERTEX
  8
FOREGROUND
  6
CONTINUOUS
 10
16.098629
 20
32.819370
  0
VERTEX
  8
FOREGROUND
  6
CONTINUOUS
 10
16.132370
 20
32.814629
  0
VERTEX
  8
FOREGROUND
  6
CONTINUOUS
 10
16.167000
 20
32.810999
  0
VERTEX
  8
FOREGROUND
  6
CONTINUOUS
 10
16.134407
 20
32.790036
  0
VERTEX
  8
FOREGROUND
  6
CONTINUOUS
 10
16.102925
 20
32.767295
  0
VERTEX
  8
FOREGROUND
  6
CONTINUOUS
 10
16.072999
 20
32.743000
  0
VERTEX
  8
FOREGROUND
  6
CONTINUOUS
 10
15.987629
 20
32.659259
  0
VERTEX
  8
FOREGROUND
  6
CONTINUOUS
 10
15.917370
 20
32.563741
  0
VERTEX
  8
FOREGROUND
  6
CONTINUOUS
 10
15.862000
 20
32.456001
  0
VERTEX
  8
FOREGROUND
  6
CONTINUOUS
 10
15.825334
 20
32.348407
  0
VERTEX
  8
FOREGROUND
  6
CONTINUOUS
 10
15.803334
 20
32.235925
  0
VERTEX
  8
FOREGROUND
  6
CONTINUOUS
 10
15.796001
 20
32.118999
  0
VERTEX
  8
FOREGROUND
  6
CONTINUOUS
 10
15.802297
 20
32.009296
  0
VERTEX
  8
FOREGROUND
  6
CONTINUOUS
 10
15.821037
 20
31.902037
  0
VERTEX
  8
FOREGROUND
  6
CONTINUOUS
 10
15.852001
 20
31.797000
  0
VERTEX
  8
FOREGROUND
  6
CONTINUOUS
 10
15.917704
 20
31.653332
  0
VERTEX
  8
FOREGROUND
  6
CONTINUOUS
 10
16.004962
 20
31.526333
  0
VERTEX
  8
FOREGROUND
  6
CONTINUOUS
 10
16.114000
 20
31.415999
  0
VERTEX
  8
FOREGROUND
  6
CONTINUOUS
 10
16.250370
 20
31.319777
  0
VERTEX
  8
FOREGROUND
  6
CONTINUOUS
 10
16.393629
 20
31.261555
  0
VERTEX
  8
FOREGROUND
  6
CONTINUOUS
 10
16.544000
 20
31.241999
  0
VERTEX
  8
FOREGROUND
  6
CONTINUOUS
 10
16.604667
 20
31.245370
  0
VERTEX
  8
FOREGROUND
  6
CONTINUOUS
 10
16.664667
 20
31.255630
  0
VERTEX
  8
FOREGROUND
  6
CONTINUOUS
 10
16.724001
 20
31.273000
  0
VERTEX
  8
FOREGROUND
  6
CONTINUOUS
 10
16.830445
 20
31.319666
  0
VERTEX
  8
FOREGROUND
  6
CONTINUOUS
 10
16.924223
 20
31.385665
  0
VERTEX
  8
FOREGROUND
  6
CONTINUOUS
 10
17.006000
 20
31.470998
  0
VERTEX
  8
FOREGROUND
  6
CONTINUOUS
 10
17.070297
 20
31.574369
  0
VERTEX
  8
FOREGROUND
  6
CONTINUOUS
 10
17.109038
 20
31.684630
  0
VERTEX
  8
FOREGROUND
  6
CONTINUOUS
 10
17.122001
 20
31.801999
  0
VERTEX
  8
FOREGROUND
  6
CONTINUOUS
 10
17.121593
 20
31.825296
  0
VERTEX
  8
FOREGROUND
  6
CONTINUOUS
 10
17.120074
 20
31.849037
  0
VERTEX
  8
FOREGROUND
  6
CONTINUOUS
 10
17.117001
 20
31.873000
  0
VERTEX
  8
FOREGROUND
  6
CONTINUOUS
 10
17.116259
 20
31.878296
  0
VERTEX
  8
FOREGROUND
  6
CONTINUOUS
 10
17.115740
 20
31.884037
  0
VERTEX
  8
FOREGROUND
  6
CONTINUOUS
 10
17.114999
 20
31.890000
  0
VERTEX
  8
FOREGROUND
  6
CONTINUOUS
 10
17.196369
 20
31.757334
  0
VERTEX
  8
FOREGROUND
  6
CONTINUOUS
 10
17.278629
 20
31.603334
  0
VERTEX
  8
FOREGROUND
  6
CONTINUOUS
 10
17.362000
 20
31.427999
  0
VERTEX
  8
FOREGROUND
  6
CONTINUOUS
 10
17.456656
 20
31.199796
  0
VERTEX
  8
FOREGROUND
  6
CONTINUOUS
 10
17.560500
 20
30.918624
  0
VERTEX
  8
FOREGROUND
  6
CONTINUOUS
 10
17.673343
 20
30.584390
  0
VERTEX
  8
FOREGROUND
  6
CONTINUOUS
 10
17.795000
 20
30.196998
  0
VERTEX
  8
FOREGROUND
  6
CONTINUOUS
 10
17.810998
 20
30.145002
  0
VERTEX
  8
FOREGROUND
  6
CONTINUOUS
 10
17.851259
 20
30.001148
  0
VERTEX
  8
FOREGROUND
  6
CONTINUOUS
 10
17.897740
 20
29.812184
  0
VERTEX
  8
FOREGROUND
  6
CONTINUOUS
 10
17.949999
 20
29.579000
  0
VERTEX
  8
FOREGROUND
  6
CONTINUOUS
 10
17.953665
 20
29.566370
  0
VERTEX
  8
FOREGROUND
  6
CONTINUOUS
 10
17.958666
 20
29.554629
  0
VERTEX
  8
FOREGROUND
  6
CONTINUOUS
 10
17.965000
 20
29.543998
  0
VERTEX
  8
FOREGROUND
  6
CONTINUOUS
 10
17.998819
 20
29.269345
  0
VERTEX
  8
FOREGROUND
  6
CONTINUOUS
 10
18.022880
 20
28.999871
  0
VERTEX
  8
FOREGROUND
  6
CONTINUOUS
 10
18.037529
 20
28.735362
  0
VERTEX
  8
FOREGROUND
  6
CONTINUOUS
 10
18.043109
 20
28.475607
  0
VERTEX
  8
FOREGROUND
  6
CONTINUOUS
 10
18.039964
 20
28.220393
  0
VERTEX
  8
FOREGROUND
  6
CONTINUOUS
 10
18.028439
 20
27.969508
  0
VERTEX
  8
FOREGROUND
  6
CONTINUOUS
 10
18.008878
 20
27.722739
  0
VERTEX
  8
FOREGROUND
  6
CONTINUOUS
 10
17.981625
 20
27.479873
  0
VERTEX
  8
FOREGROUND
  6
CONTINUOUS
 10
17.947024
 20
27.240699
  0
VERTEX
  8
FOREGROUND
  6
CONTINUOUS
 10
17.905420
 20
27.005004
  0
VERTEX
  8
FOREGROUND
  6
CONTINUOUS
 10
17.857156
 20
26.772576
  0
VERTEX
  8
FOREGROUND
  6
CONTINUOUS
 10
17.802578
 20
26.543202
  0
VERTEX
  8
FOREGROUND
  6
CONTINUOUS
 10
17.742029
 20
26.316670
  0
VERTEX
  8
FOREGROUND
  6
CONTINUOUS
 10
17.675853
 20
26.092767
  0
VERTEX
  8
FOREGROUND
  6
CONTINUOUS
 10
17.604395
 20
25.871281
  0
VERTEX
  8
FOREGROUND
  6
CONTINUOUS
 10
17.527999
 20
25.651999
  0
VERTEX
  8
FOREGROUND
  6
CONTINUOUS
 10
17.605236
 20
25.412390
  0
VERTEX
  8
FOREGROUND
  6
CONTINUOUS
 10
17.676099
 20
25.173332
  0
VERTEX
  8
FOREGROUND
  6
CONTINUOUS
 10
17.740588
 20
24.934824
  0
VERTEX
  8
FOREGROUND
  6
CONTINUOUS
 10
17.798702
 20
24.696868
  0
VERTEX
  8
FOREGROUND
  6
CONTINUOUS
 10
17.850441
 20
24.459463
  0
VERTEX
  8
FOREGROUND
  6
CONTINUOUS
 10
17.895804
 20
24.222610
  0
VERTEX
  8
FOREGROUND
  6
CONTINUOUS
 10
17.934789
 20
23.986310
  0
VERTEX
  8
FOREGROUND
  6
CONTINUOUS
 10
17.967397
 20
23.750562
  0
VERTEX
  8
FOREGROUND
  6
CONTINUOUS
 10
17.993627
 20
23.515368
  0
VERTEX
  8
FOREGROUND
  6
CONTINUOUS
 10
18.013478
 20
23.280726
  0
VERTEX
  8
FOREGROUND
  6
CONTINUOUS
 10
18.026949
 20
23.046639
  0
VERTEX
  8
FOREGROUND
  6
CONTINUOUS
 10
18.034040
 20
22.813105
  0
VERTEX
  8
FOREGROUND
  6
CONTINUOUS
 10
18.034750
 20
22.580126
  0
VERTEX
  8
FOREGROUND
  6
CONTINUOUS
 10
18.029078
 20
22.347701
  0
VERTEX
  8
FOREGROUND
  6
CONTINUOUS
 10
18.017024
 20
22.115832
  0
VERTEX
  8
FOREGROUND
  6
CONTINUOUS
 10
17.998587
 20
21.884518
  0
VERTEX
  8
FOREGROUND
  6
CONTINUOUS
 10
17.973766
 20
21.653760
  0
VERTEX
  8
FOREGROUND
  6
CONTINUOUS
 10
17.942561
 20
21.423558
  0
VERTEX
  8
FOREGROUND
  6
CONTINUOUS
 10
17.904971
 20
21.193912
  0
VERTEX
  8
FOREGROUND
  6
CONTINUOUS
 10
17.860995
 20
20.964823
  0
VERTEX
  8
FOREGROUND
  6
CONTINUOUS
 10
17.810632
 20
20.736291
  0
VERTEX
  8
FOREGROUND
  6
CONTINUOUS
 10
17.753883
 20
20.508317
  0
VERTEX
  8
FOREGROUND
  6
CONTINUOUS
 10
17.690745
 20
20.280900
  0
VERTEX
  8
FOREGROUND
  6
CONTINUOUS
 10
17.621219
 20
20.054042
  0
VERTEX
  8
FOREGROUND
  6
CONTINUOUS
 10
17.545304
 20
19.827742
  0
VERTEX
  8
FOREGROUND
  6
CONTINUOUS
 10
17.462999
 20
19.602001
  0
VERTEX
  8
FOREGROUND
  6
CONTINUOUS
 10
17.462999
 20
19.602001
  0
VERTEX
  8
FOREGROUND
  6
CONTINUOUS
 10
17.551963
 20
19.339684
  0
VERTEX
  8
FOREGROUND
  6
CONTINUOUS
 10
17.633603
 20
19.079482
  0
VERTEX
  8
FOREGROUND
  6
CONTINUOUS
 10
17.707918
 20
18.821396
  0
VERTEX
  8
FOREGROUND
  6
CONTINUOUS
 10
17.774907
 20
18.565427
  0
VERTEX
  8
FOREGROUND
  6
CONTINUOUS
 10
17.834570
 20
18.311577
  0
VERTEX
  8
FOREGROUND
  6
CONTINUOUS
 10
17.886906
 20
18.059845
  0
VERTEX
  8
FOREGROUND
  6
CONTINUOUS
 10
17.931914
 20
17.810233
  0
VERTEX
  8
FOREGROUND
  6
CONTINUOUS
 10
17.969592
 20
17.562742
  0
VERTEX
  8
FOREGROUND
  6
CONTINUOUS
 10
17.999941
 20
17.317372
  0
VERTEX
  8
FOREGROUND
  6
CONTINUOUS
 10
18.022959
 20
17.074125
  0
VERTEX
  8
FOREGROUND
  6
CONTINUOUS
 10
18.038646
 20
16.833000
  0
VERTEX
  8
FOREGROUND
  6
CONTINUOUS
 10
18.047000
 20
16.594000
  0
VERTEX
  8
FOREGROUND
  6
CONTINUOUS
 10
18.048020
 20
16.357126
  0
VERTEX
  8
FOREGROUND
  6
CONTINUOUS
 10
18.041707
 20
16.122376
  0
VERTEX
  8
FOREGROUND
  6
CONTINUOUS
 10
18.028058
 20
15.889754
  0
VERTEX
  8
FOREGROUND
  6
CONTINUOUS
 10
18.007074
 20
15.659259
  0
VERTEX
  8
FOREGROUND
  6
CONTINUOUS
 10
17.978753
 20
15.430893
  0
VERTEX
  8
FOREGROUND
  6
CONTINUOUS
 10
17.943094
 20
15.204656
  0
VERTEX
  8
FOREGROUND
  6
CONTINUOUS
 10
17.900096
 20
14.980549
  0
VERTEX
  8
FOREGROUND
  6
CONTINUOUS
 10
17.849760
 20
14.758574
  0
VERTEX
  8
FOREGROUND
  6
CONTINUOUS
 10
17.792082
 20
14.538730
  0
VERTEX
  8
FOREGROUND
  6
CONTINUOUS
 10
17.727064
 20
14.321019
  0
VERTEX
  8
FOREGROUND
  6
CONTINUOUS
 10
17.654704
 20
14.105442
  0
VERTEX
  8
FOREGROUND
  6
CONTINUOUS
 10
17.575001
 20
13.891999
  0
VERTEX
  8
FOREGROUND
  6
CONTINUOUS
 10
17.575001
 20
13.891999
  0
VERTEX
  8
FOREGROUND
  6
CONTINUOUS
 10
17.770237
 20
13.710892
  0
VERTEX
  8
FOREGROUND
  6
CONTINUOUS
 10
17.940196
 20
13.496933
  0
VERTEX
  8
FOREGROUND
  6
CONTINUOUS
 10
18.084825
 20
13.255597
  0
VERTEX
  8
FOREGROUND
  6
CONTINUOUS
 10
18.204073
 20
12.992361
  0
VERTEX
  8
FOREGROUND
  6
CONTINUOUS
 10
18.297886
 20
12.712700
  0
VERTEX
  8
FOREGROUND
  6
CONTINUOUS
 10
18.366213
 20
12.422087
  0
VERTEX
  8
FOREGROUND
  6
CONTINUOUS
 10
18.409000
 20
12.126000
  0
VERTEX
  8
FOREGROUND
  6
CONTINUOUS
 10
18.409000
 20
12.126000
  0
VERTEX
  8
FOREGROUND
  6
CONTINUOUS
 10
18.106906
 20
12.141224
  0
VERTEX
  8
FOREGROUND
  6
CONTINUOUS
 10
17.817478
 20
12.191102
  0
VERTEX
  8
FOREGROUND
  6
CONTINUOUS
 10
17.545419
 20
12.270367
  0
VERTEX
  8
FOREGROUND
  6
CONTINUOUS
 10
17.295437
 20
12.373755
  0
VERTEX
  8
FOREGROUND
  6
CONTINUOUS
 10
17.072236
 20
12.496000
  0
VERTEX
  8
FOREGROUND
  6
CONTINUOUS
 10
16.880522
 20
12.631837
  0
VERTEX
  8
FOREGROUND
  6
CONTINUOUS
 10
16.725000
 20
12.776001
  0
VERTEX
  8
FOREGROUND
  6
CONTINUOUS
 10
16.479325
 20
12.712426
  0
VERTEX
  8
FOREGROUND
  6
CONTINUOUS
 10
16.234302
 20
12.656221
  0
VERTEX
  8
FOREGROUND
  6
CONTINUOUS
 10
15.989937
 20
12.607379
  0
VERTEX
  8
FOREGROUND
  6
CONTINUOUS
 10
15.746232
 20
12.565890
  0
VERTEX
  8
FOREGROUND
  6
CONTINUOUS
 10
15.503194
 20
12.531746
  0
VERTEX
  8
FOREGROUND
  6
CONTINUOUS
 10
15.260825
 20
12.504937
  0
VERTEX
  8
FOREGROUND
  6
CONTINUOUS
 10
15.019131
 20
12.485456
  0
VERTEX
  8
FOREGROUND
  6
CONTINUOUS
 10
14.778115
 20
12.473292
  0
VERTEX
  8
FOREGROUND
  6
CONTINUOUS
 10
14.537783
 20
12.468438
  0
VERTEX
  8
FOREGROUND
  6
CONTINUOUS
 10
14.298139
 20
12.470885
  0
VERTEX
  8
FOREGROUND
  6
CONTINUOUS
 10
14.059186
 20
12.480624
  0
VERTEX
  8
FOREGROUND
  6
CONTINUOUS
 10
13.820930
 20
12.497647
  0
VERTEX
  8
FOREGROUND
  6
CONTINUOUS
 10
13.583374
 20
12.521943
  0
VERTEX
  8
FOREGROUND
  6
CONTINUOUS
 10
13.346523
 20
12.553506
  0
VERTEX
  8
FOREGROUND
  6
CONTINUOUS
 10
13.110382
 20
12.592326
  0
VERTEX
  8
FOREGROUND
  6
CONTINUOUS
 10
12.874955
 20
12.638393
  0
VERTEX
  8
FOREGROUND
  6
CONTINUOUS
 10
12.640246
 20
12.691701
  0
VERTEX
  8
FOREGROUND
  6
CONTINUOUS
 10
12.406259
 20
12.752239
  0
VERTEX
  8
FOREGROUND
  6
CONTINUOUS
 10
12.173000
 20
12.819999
  0
VERTEX
  8
FOREGROUND
  6
CONTINUOUS
 10
12.173000
 20
12.819999
  0
VERTEX
  8
FOREGROUND
  6
CONTINUOUS
 10
11.918479
 20
12.736312
  0
VERTEX
  8
FOREGROUND
  6
CONTINUOUS
 10
11.658954
 20
12.664438
  0
VERTEX
  8
FOREGROUND
  6
CONTINUOUS
 10
11.394483
 20
12.604282
  0
VERTEX
  8
FOREGROUND
  6
CONTINUOUS
 10
11.125125
 20
12.555751
  0
VERTEX
  8
FOREGROUND
  6
CONTINUOUS
 10
10.850940
 20
12.518751
  0
VERTEX
  8
FOREGROUND
  6
CONTINUOUS
 10
10.571984
 20
12.493188
  0
VERTEX
  8
FOREGROUND
  6
CONTINUOUS
 10
10.288318
 20
12.478970
  0
VERTEX
  8
FOREGROUND
  6
CONTINUOUS
 10
9.999999
 20
12.476001
  0
VERTEX
  8
FOREGROUND
  6
CONTINUOUS
 10
9.711722
 20
12.478970
  0
VERTEX
  8
FOREGROUND
  6
CONTINUOUS
 10
9.428156
 20
12.493188
  0
VERTEX
  8
FOREGROUND
  6
CONTINUOUS
 10
9.149324
 20
12.518751
  0
VERTEX
  8
FOREGROUND
  6
CONTINUOUS
 10
8.875250
 20
12.555751
  0
VERTEX
  8
FOREGROUND
  6
CONTINUOUS
 10
8.605957
 20
12.604282
  0
VERTEX
  8
FOREGROUND
  6
CONTINUOUS
 10
8.341469
 20
12.664438
  0
VERTEX
  8
FOREGROUND
  6
CONTINUOUS
 10
8.081809
 20
12.736312
  0
VERTEX
  8
FOREGROUND
  6
CONTINUOUS
 10
7.827000
 20
12.819999
  0
VERTEX
  8
FOREGROUND
  6
CONTINUOUS
 10
7.593748
 20
12.752239
  0
VERTEX
  8
FOREGROUND
  6
CONTINUOUS
 10
7.359784
 20
12.691701
  0
VERTEX
  8
FOREGROUND
  6
CONTINUOUS
 10
7.125108
 20
12.638393
  0
VERTEX
  8
FOREGROUND
  6
CONTINUOUS
 10
6.889723
 20
12.592326
  0
VERTEX
  8
FOREGROUND
  6
CONTINUOUS
 10
6.653630
 20
12.553506
  0
VERTEX
  8
FOREGROUND
  6
CONTINUOUS
 10
6.416831
 20
12.521943
  0
VERTEX
  8
FOREGROUND
  6
CONTINUOUS
 10
6.179328
 20
12.497647
  0
VERTEX
  8
FOREGROUND
  6
CONTINUOUS
 10
5.941122
 20
12.480624
  0
VERTEX
  8
FOREGROUND
  6
CONTINUOUS
 10
5.702216
 20
12.470885
  0
VERTEX
  8
FOREGROUND
  6
CONTINUOUS
 10
5.462611
 20
12.468438
  0
VERTEX
  8
FOREGROUND
  6
CONTINUOUS
 10
5.222308
 20
12.473292
  0
VERTEX
  8
FOREGROUND
  6
CONTINUOUS
 10
4.981311
 20
12.485456
  0
VERTEX
  8
FOREGROUND
  6
CONTINUOUS
 10
4.739619
 20
12.504937
  0
VERTEX
  8
FOREGROUND
  6
CONTINUOUS
 10
4.497236
 20
12.531746
  0
VERTEX
  8
FOREGROUND
  6
CONTINUOUS
 10
4.254162
 20
12.565890
  0
VERTEX
  8
FOREGROUND
  6
CONTINUOUS
 10
4.010400
 20
12.607379
  0
VERTEX
  8
FOREGROUND
  6
CONTINUOUS
 10
3.765952
 20
12.656221
  0
VERTEX
  8
FOREGROUND
  6
CONTINUOUS
 10
3.520818
 20
12.712426
  0
VERTEX
  8
FOREGROUND
  6
CONTINUOUS
 10
3.275001
 20
12.776001
  0
VERTEX
  8
FOREGROUND
  6
CONTINUOUS
 10
3.275001
 20
12.776001
  0
VERTEX
  8
FOREGROUND
  6
CONTINUOUS
 10
3.119794
 20
12.631837
  0
VERTEX
  8
FOREGROUND
  6
CONTINUOUS
 10
2.928201
 20
12.496000
  0
VERTEX
  8
FOREGROUND
  6
CONTINUOUS
 10
2.704982
 20
12.373755
  0
VERTEX
  8
FOREGROUND
  6
CONTINUOUS
 10
2.454895
 20
12.270367
  0
VERTEX
  8
FOREGROUND
  6
CONTINUOUS
 10
2.182697
 20
12.191102
  0
VERTEX
  8
FOREGROUND
  6
CONTINUOUS
 10
1.893146
 20
12.141224
  0
VERTEX
  8
FOREGROUND
  6
CONTINUOUS
 10
1.591000
 20
12.126000
  0
VERTEX
  8
FOREGROUND
  6
CONTINUOUS
 10
1.591000
 20
12.126000
  0
VERTEX
  8
FOREGROUND
  6
CONTINUOUS
 10
1.633787
 20
12.422087
  0
VERTEX
  8
FOREGROUND
  6
CONTINUOUS
 10
1.702114
 20
12.712700
  0
VERTEX
  8
FOREGROUND
  6
CONTINUOUS
 10
1.795927
 20
12.992361
  0
VERTEX
  8
FOREGROUND
  6
CONTINUOUS
 10
1.915175
 20
13.255597
  0
VERTEX
  8
FOREGROUND
  6
CONTINUOUS
 10
2.059805
 20
13.496933
  0
VERTEX
  8
FOREGROUND
  6
CONTINUOUS
 10
2.229764
 20
13.710892
  0
VERTEX
  8
FOREGROUND
  6
CONTINUOUS
 10
2.425001
 20
13.891999
  0
VERTEX
  8
FOREGROUND
  6
CONTINUOUS
 10
2.425001
 20
13.891999
  0
VERTEX
  8
FOREGROUND
  6
CONTINUOUS
 10
2.345297
 20
14.105442
  0
VERTEX
  8
FOREGROUND
  6
CONTINUOUS
 10
2.272937
 20
14.321019
  0
VERTEX
  8
FOREGROUND
  6
CONTINUOUS
 10
2.207918
 20
14.538730
  0
VERTEX
  8
FOREGROUND
  6
CONTINUOUS
 10
2.150241
 20
14.758574
  0
VERTEX
  8
FOREGROUND
  6
CONTINUOUS
 10
2.099904
 20
14.980549
  0
VERTEX
  8
FOREGROUND
  6
CONTINUOUS
 10
2.056907
 20
15.204656
  0
VERTEX
  8
FOREGROUND
  6
CONTINUOUS
 10
2.021248
 20
15.430893
  0
VERTEX
  8
FOREGROUND
  6
CONTINUOUS
 10
1.992926
 20
15.659259
  0
VERTEX
  8
FOREGROUND
  6
CONTINUOUS
 10
1.971942
 20
15.889754
  0
VERTEX
  8
FOREGROUND
  6
CONTINUOUS
 10
1.958293
 20
16.122376
  0
VERTEX
  8
FOREGROUND
  6
CONTINUOUS
 10
1.951979
 20
16.357126
  0
VERTEX
  8
FOREGROUND
  6
CONTINUOUS
 10
1.953000
 20
16.594000
  0
VERTEX
  8
FOREGROUND
  6
CONTINUOUS
 10
1.961354
 20
16.833000
  0
VERTEX
  8
FOREGROUND
  6
CONTINUOUS
 10
1.977041
 20
17.074125
  0
VERTEX
  8
FOREGROUND
  6
CONTINUOUS
 10
2.000059
 20
17.317372
  0
VERTEX
  8
FOREGROUND
  6
CONTINUOUS
 10
2.030407
 20
17.562742
  0
VERTEX
  8
FOREGROUND
  6
CONTINUOUS
 10
2.068086
 20
17.810233
  0
VERTEX
  8
FOREGROUND
  6
CONTINUOUS
 10
2.113094
 20
18.059845
  0
VERTEX
  8
FOREGROUND
  6
CONTINUOUS
 10
2.165430
 20
18.311577
  0
VERTEX
  8
FOREGROUND
  6
CONTINUOUS
 10
2.225093
 20
18.565427
  0
VERTEX
  8
FOREGROUND
  6
CONTINUOUS
 10
2.292082
 20
18.821396
  0
VERTEX
  8
FOREGROUND
  6
CONTINUOUS
 10
2.366397
 20
19.079482
  0
VERTEX
  8
FOREGROUND
  6
CONTINUOUS
 10
2.448037
 20
19.339684
  0
VERTEX
  8
FOREGROUND
  6
CONTINUOUS
 10
2.537000
 20
19.602001
  0
VERTEX
  8
FOREGROUND
  6
CONTINUOUS
 10
2.537000
 20
19.602001
  0
VERTEX
  8
FOREGROUND
  6
CONTINUOUS
 10
2.454695
 20
19.827742
  0
VERTEX
  8
FOREGROUND
  6
CONTINUOUS
 10
2.378780
 20
20.054042
  0
VERTEX
  8
FOREGROUND
  6
CONTINUOUS
 10
2.309254
 20
20.280900
  0
VERTEX
  8
FOREGROUND
  6
CONTINUOUS
 10
2.246117
 20
20.508317
  0
VERTEX
  8
FOREGROUND
  6
CONTINUOUS
 10
2.189367
 20
20.736291
  0
VERTEX
  8
FOREGROUND
  6
CONTINUOUS
 10
2.139005
 20
20.964823
  0
VERTEX
  8
FOREGROUND
  6
CONTINUOUS
 10
2.095029
 20
21.193912
  0
VERTEX
  8
FOREGROUND
  6
CONTINUOUS
 10
2.057439
 20
21.423558
  0
VERTEX
  8
FOREGROUND
  6
CONTINUOUS
 10
2.026233
 20
21.653760
  0
VERTEX
  8
FOREGROUND
  6
CONTINUOUS
 10
2.001413
 20
21.884518
  0
VERTEX
  8
FOREGROUND
  6
CONTINUOUS
 10
1.982976
 20
22.115832
  0
VERTEX
  8
FOREGROUND
  6
CONTINUOUS
 10
1.970922
 20
22.347701
  0
VERTEX
  8
FOREGROUND
  6
CONTINUOUS
 10
1.965250
 20
22.580126
  0
VERTEX
  8
FOREGROUND
  6
CONTINUOUS
 10
1.965960
 20
22.813105
  0
VERTEX
  8
FOREGROUND
  6
CONTINUOUS
 10
1.973051
 20
23.046639
  0
VERTEX
  8
FOREGROUND
  6
CONTINUOUS
 10
1.986522
 20
23.280726
  0
VERTEX
  8
FOREGROUND
  6
CONTINUOUS
 10
2.006373
 20
23.515368
  0
VERTEX
  8
FOREGROUND
  6
CONTINUOUS
 10
2.032603
 20
23.750562
  0
VERTEX
  8
FOREGROUND
  6
CONTINUOUS
 10
2.065211
 20
23.986310
  0
VERTEX
  8
FOREGROUND
  6
CONTINUOUS
 10
2.104196
 20
24.222610
  0
VERTEX
  8
FOREGROUND
  6
CONTINUOUS
 10
2.149559
 20
24.459463
  0
VERTEX
  8
FOREGROUND
  6
CONTINUOUS
 10
2.201297
 20
24.696868
  0
VERTEX
  8
FOREGROUND
  6
CONTINUOUS
 10
2.259411
 20
24.934824
  0
VERTEX
  8
FOREGROUND
  6
CONTINUOUS
 10
2.323900
 20
25.173332
  0
VERTEX
  8
FOREGROUND
  6
CONTINUOUS
 10
2.394764
 20
25.412390
  0
VERTEX
  8
FOREGROUND
  6
CONTINUOUS
 10
2.472000
 20
25.651999
  0
VERTEX
  8
FOREGROUND
  6
CONTINUOUS
 10
2.472000
 20
25.651999
  0
VERTEX
  8
FOREGROUND
  6
CONTINUOUS
 10
2.395769
 20
25.871281
  0
VERTEX
  8
FOREGROUND
  6
CONTINUOUS
 10
2.324434
 20
26.092767
  0
VERTEX
  8
FOREGROUND
  6
CONTINUOUS
 10
2.258342
 20
26.316670
  0
VERTEX
  8
FOREGROUND
  6
CONTINUOUS
 10
2.197844
 20
26.543202
  0
VERTEX
  8
FOREGROUND
  6
CONTINUOUS
 10
2.143287
 20
26.772576
  0
VERTEX
  8
FOREGROUND
  6
CONTINUOUS
 10
2.095019
 20
27.005004
  0
VERTEX
  8
FOREGROUND
  6
CONTINUOUS
 10
2.053391
 20
27.240699
  0
VERTEX
  8
FOREGROUND
  6
CONTINUOUS
 10
2.018750
 20
27.479873
  0
VERTEX
  8
FOREGROUND
  6
CONTINUOUS
 10
1.991445
 20
27.722739
  0
VERTEX
  8
FOREGROUND
  6
CONTINUOUS
 10
1.971824
 20
27.969508
  0
VERTEX
  8
FOREGROUND
  6
CONTINUOUS
 10
1.960237
 20
28.220393
  0
VERTEX
  8
FOREGROUND
  6
CONTINUOUS
 10
1.957031
 20
28.475607
  0
VERTEX
  8
FOREGROUND
  6
CONTINUOUS
 10
1.962557
 20
28.735362
  0
VERTEX
  8
FOREGROUND
  6
CONTINUOUS
 10
1.977161
 20
28.999871
  0
VERTEX
  8
FOREGROUND
  6
CONTINUOUS
 10
2.001193
 20
29.269345
  0
VERTEX
  8
FOREGROUND
  6
CONTINUOUS
 10
2.035002
 20
29.543998
  0
VERTEX
  8
FOREGROUND
  6
CONTINUOUS
 10
2.041593
 20
29.554629
  0
VERTEX
  8
FOREGROUND
  6
CONTINUOUS
 10
2.047075
 20
29.566370
  0
VERTEX
  8
FOREGROUND
  6
CONTINUOUS
 10
2.051002
 20
29.579000
  0
VERTEX
  8
FOREGROUND
  6
CONTINUOUS
 10
2.103001
 20
29.812184
  0
VERTEX
  8
FOREGROUND
  6
CONTINUOUS
 10
2.149000
 20
30.001148
  0
VERTEX
  8
FOREGROUND
  6
CONTINUOUS
 10
2.188998
 20
30.145002
  0
VERTEX
  8
FOREGROUND
  6
CONTINUOUS
 10
2.205000
 20
30.196998
  0
VERTEX
  8
FOREGROUND
  6
CONTINUOUS
 10
2.326656
 20
30.584390
  0
VERTEX
  8
FOREGROUND
  6
CONTINUOUS
 10
2.439500
 20
30.918624
  0
VERTEX
  8
FOREGROUND
  6
CONTINUOUS
 10
2.543344
 20
31.199796
  0
VERTEX
  8
FOREGROUND
  6
CONTINUOUS
 10
2.637999
 20
31.427999
  0
VERTEX
  8
FOREGROUND
  6
CONTINUOUS
 10
2.721370
 20
31.603334
  0
VERTEX
  8
FOREGROUND
  6
CONTINUOUS
 10
2.803630
 20
31.757334
  0
VERTEX
  8
FOREGROUND
  6
CONTINUOUS
 10
2.885001
 20
31.890000
  0
VERTEX
  8
FOREGROUND
  6
CONTINUOUS
 10
2.884259
 20
31.884037
  0
VERTEX
  8
FOREGROUND
  6
CONTINUOUS
 10
2.883740
 20
31.878296
  0
VERTEX
  8
FOREGROUND
  6
CONTINUOUS
 10
2.882999
 20
31.873000
  0
VERTEX
  8
FOREGROUND
  6
CONTINUOUS
 10
2.879925
 20
31.849037
  0
VERTEX
  8
FOREGROUND
  6
CONTINUOUS
 10
2.878406
 20
31.825296
  0
VERTEX
  8
FOREGROUND
  6
CONTINUOUS
 10
2.877999
 20
31.801999
  0
VERTEX
  8
FOREGROUND
  6
CONTINUOUS
 10
2.890999
 20
31.684630
  0
VERTEX
  8
FOREGROUND
  6
CONTINUOUS
 10
2.930000
 20
31.574369
  0
VERTEX
  8
FOREGROUND
  6
CONTINUOUS
 10
2.995000
 20
31.470998
  0
VERTEX
  8
FOREGROUND
  6
CONTINUOUS
 10
3.076074
 20
31.385665
  0
VERTEX
  8
FOREGROUND
  6
CONTINUOUS
 10
3.169592
 20
31.319666
  0
VERTEX
  8
FOREGROUND
  6
CONTINUOUS
 10
3.275999
 20
31.273000
  0
VERTEX
  8
FOREGROUND
  6
CONTINUOUS
 10
3.335333
 20
31.255630
  0
VERTEX
  8
FOREGROUND
  6
CONTINUOUS
 10
3.395334
 20
31.245370
  0
VERTEX
  8
FOREGROUND
  6
CONTINUOUS
 10
3.456002
 20
31.241999
  0
VERTEX
  8
FOREGROUND
  6
CONTINUOUS
 10
3.606408
 20
31.261555
  0
VERTEX
  8
FOREGROUND
  6
CONTINUOUS
 10
3.749926
 20
31.319777
  0
VERTEX
  8
FOREGROUND
  6
CONTINUOUS
 10
3.887001
 20
31.415999
  0
VERTEX
  8
FOREGROUND
  6
CONTINUOUS
 10
3.995334
 20
31.526333
  0
VERTEX
  8
FOREGROUND
  6
CONTINUOUS
 10
4.082333
 20
31.653332
  0
VERTEX
  8
FOREGROUND
  6
CONTINUOUS
 10
4.147999
 20
31.797000
  0
VERTEX
  8
FOREGROUND
  6
CONTINUOUS
 10
4.178963
 20
31.902037
  0
VERTEX
  8
FOREGROUND
  6
CONTINUOUS
 10
4.197704
 20
32.009296
  0
VERTEX
  8
FOREGROUND
  6
CONTINUOUS
 10
4.204000
 20
32.118999
  0
VERTEX
  8
FOREGROUND
  6
CONTINUOUS
 10
4.196667
 20
32.235925
  0
VERTEX
  8
FOREGROUND
  6
CONTINUOUS
 10
4.174667
 20
32.348407
  0
VERTEX
  8
FOREGROUND
  6
CONTINUOUS
 10
4.137999
 20
32.456001
  0
VERTEX
  8
FOREGROUND
  6
CONTINUOUS
 10
4.082666
 20
32.563741
  0
VERTEX
  8
FOREGROUND
  6
CONTINUOUS
 10
4.012666
 20
32.659259
  0
VERTEX
  8
FOREGROUND
  6
CONTINUOUS
 10
3.928000
 20
32.743000
  0
VERTEX
  8
FOREGROUND
  6
CONTINUOUS
 10
3.898037
 20
32.767295
  0
VERTEX
  8
FOREGROUND
  6
CONTINUOUS
 10
3.866296
 20
32.790036
  0
VERTEX
  8
FOREGROUND
  6
CONTINUOUS
 10
3.833000
 20
32.810999
  0
VERTEX
  8
FOREGROUND
  6
CONTINUOUS
 10
3.868333
 20
32.814629
  0
VERTEX
  8
FOREGROUND
  6
CONTINUOUS
 10
3.902333
 20
32.819370
  0
VERTEX
  8
FOREGROUND
  6
CONTINUOUS
 10
3.935000
 20
32.824999
  0
VERTEX
  8
FOREGROUND
  6
CONTINUOUS
 10
4.016260
 20
32.842296
  0
VERTEX
  8
FOREGROUND
  6
CONTINUOUS
 10
4.093741
 20
32.862037
  0
VERTEX
  8
FOREGROUND
  6
CONTINUOUS
 10
4.167000
 20
32.884001
  0
VERTEX
  8
FOREGROUND
  6
CONTINUOUS
 10
4.306667
 20
32.937333
  0
VERTEX
  8
FOREGROUND
  6
CONTINUOUS
 10
4.429667
 20
33.001333
  0
VERTEX
  8
FOREGROUND
  6
CONTINUOUS
 10
4.536001
 20
33.076000
  0
VERTEX
  8
FOREGROUND
  6
CONTINUOUS
 10
4.621888
 20
33.156703
  0
VERTEX
  8
FOREGROUND
  6
CONTINUOUS
 10
4.693110
 20
33.246963
  0
VERTEX
  8
FOREGROUND
  6
CONTINUOUS
 10
4.749000
 20
33.347000
  0
VERTEX
  8
FOREGROUND
  6
CONTINUOUS
 10
4.757408
 20
33.365296
  0
VERTEX
  8
FOREGROUND
  6
CONTINUOUS
 10
4.764926
 20
33.384036
  0
VERTEX
  8
FOREGROUND
  6
CONTINUOUS
 10
4.772000
 20
33.402998
  0
VERTEX
  8
FOREGROUND
  6
CONTINUOUS
 10
4.772704
 20
33.403295
  0
VERTEX
  8
FOREGROUND
  6
CONTINUOUS
 10
4.772964
 20
33.404036
  0
VERTEX
  8
FOREGROUND
  6
CONTINUOUS
 10
4.773001
 20
33.404999
  0
VERTEX
  8
FOREGROUND
  6
CONTINUOUS
 10
4.773704
 20
33.405740
  0
VERTEX
  8
FOREGROUND
  6
CONTINUOUS
 10
4.773963
 20
33.406259
  0
VERTEX
  8
FOREGROUND
  6
CONTINUOUS
 10
4.774000
 20
33.407001
  0
VERTEX
  8
FOREGROUND
  6
CONTINUOUS
 10
4.814001
 20
33.513999
  0
VERTEX
  8
FOREGROUND
  6
CONTINUOUS
 10
4.710001
 20
33.534001
  0
VERTEX
  8
FOREGROUND
  6
CONTINUOUS
 10
4.706000
 20
33.535000
  0
VERTEX
  8
FOREGROUND
  6
CONTINUOUS
 10
4.702000
 20
33.535999
  0
VERTEX
  8
FOREGROUND
  6
CONTINUOUS
 10
4.697999
 20
33.536999
  0
VERTEX
  8
FOREGROUND
  6
CONTINUOUS
 10
4.615962
 20
33.559037
  0
VERTEX
  8
FOREGROUND
  6
CONTINUOUS
 10
4.513704
 20
33.597296
  0
VERTEX
  8
FOREGROUND
  6
CONTINUOUS
 10
4.391001
 20
33.652002
  0
VERTEX
  8
FOREGROUND
  6
CONTINUOUS
 10
4.264631
 20
33.709703
  0
VERTEX
  8
FOREGROUND
  6
CONTINUOUS
 10
4.155372
 20
33.752962
  0
VERTEX
  8
FOREGROUND
  6
CONTINUOUS
 10
4.063001
 20
33.781998
  0
VERTEX
  8
FOREGROUND
  6
CONTINUOUS
 10
3.974963
 20
33.801740
  0
VERTEX
  8
FOREGROUND
  6
CONTINUOUS
 10
3.882704
 20
33.813259
  0
VERTEX
  8
FOREGROUND
  6
CONTINUOUS
 10
3.786000
 20
33.817000
  0
VERTEX
  8
FOREGROUND
  6
CONTINUOUS
 10
3.717666
 20
33.815259
  0
VERTEX
  8
FOREGROUND
  6
CONTINUOUS
 10
3.648666
 20
33.809741
  0
VERTEX
  8
FOREGROUND
  6
CONTINUOUS
 10
3.579002
 20
33.800001
  0
VERTEX
  8
FOREGROUND
  6
CONTINUOUS
 10
3.847741
 20
34.041370
  0
VERTEX
  8
FOREGROUND
  6
CONTINUOUS
 10
4.056259
 20
34.291630
  0
VERTEX
  8
FOREGROUND
  6
CONTINUOUS
 10
4.205000
 20
34.550999
  0
VERTEX
  8
FOREGROUND
  6
CONTINUOUS
 10
4.221333
 20
34.588739
  0
VERTEX
  8
FOREGROUND
  6
CONTINUOUS
 10
4.236333
 20
34.626259
  0
VERTEX
  8
FOREGROUND
  6
CONTINUOUS
 10
4.250001
 20
34.664001
  0
VERTEX
  8
FOREGROUND
  6
CONTINUOUS
 10
4.263593
 20
34.707667
  0
VERTEX
  8
FOREGROUND
  6
CONTINUOUS
 10
4.276075
 20
34.754666
  0
VERTEX
  8
FOREGROUND
  6
CONTINUOUS
 10
4.287001
 20
34.804998
  0
VERTEX
  8
FOREGROUND
  6
CONTINUOUS
 10
4.307000
 20
34.925332
  0
VERTEX
  8
FOREGROUND
  6
CONTINUOUS
 10
4.320999
 20
35.062333
  0
VERTEX
  8
FOREGROUND
  6
CONTINUOUS
 10
4.328999
 20
35.215999
  0
VERTEX
  8
FOREGROUND
  6
CONTINUOUS
 10
4.328999
 20
35.219999
  0
VERTEX
  8
FOREGROUND
  6
CONTINUOUS
 10
4.333666
 20
35.327666
  0
VERTEX
  8
FOREGROUND
  6
CONTINUOUS
 10
4.339667
 20
35.416666
  0
VERTEX
  8
FOREGROUND
  6
CONTINUOUS
 10
4.347001
 20
35.487000
  0
VERTEX
  8
FOREGROUND
  6
CONTINUOUS
 10
4.348001
 20
35.494000
  0
VERTEX
  8
FOREGROUND
  6
CONTINUOUS
 10
4.349002
 20
35.501000
  0
VERTEX
  8
FOREGROUND
  6
CONTINUOUS
 10
4.350002
 20
35.508000
  0
VERTEX
  8
FOREGROUND
  6
CONTINUOUS
 10
4.372000
 20
35.638000
  0
VERTEX
  8
FOREGROUND
  6
CONTINUOUS
 10
7.744970
 20
35.638000
  0
VERTEX
  8
FOREGROUND
  6
CONTINUOUS
 10
7.709665
 20
35.670419
  0
VERTEX
  8
FOREGROUND
  6
CONTINUOUS
 10
7.675948
 20
35.703419
  0
VERTEX
  8
FOREGROUND
  6
CONTINUOUS
 10
7.643816
 20
35.736999
  0
VERTEX
  8
FOREGROUND
  6
CONTINUOUS
 10
4.083032
 20
35.736999
  0
VERTEX
  8
FOREGROUND
  6
CONTINUOUS
 10
4.136795
 20
35.776093
  0
VERTEX
  8
FOREGROUND
  6
CONTINUOUS
 10
4.184106
 20
35.821201
  0
VERTEX
  8
FOREGROUND
  6
CONTINUOUS
 10
4.225189
 20
35.872323
  0
VERTEX
  8
FOREGROUND
  6
CONTINUOUS
 10
4.259664
 20
35.930265
  0
VERTEX
  8
FOREGROUND
  6
CONTINUOUS
 10
4.297849
 20
36.009615
  0
SEQEND
  8
0
  0
POLYLINE
  8
FOREGROUND
  6
CONTINUOUS
 66
     1
 40
0.042000
 41
0.042000
 70
     1
  0
VERTEX
  8
FOREGROUND
  6
CONTINUOUS
 10
2.302000
 20
12.129000
  0
VERTEX
  8
FOREGROUND
  6
CONTINUOUS
 10
2.413456
 20
12.163785
  0
VERTEX
  8
FOREGROUND
  6
CONTINUOUS
 10
2.523577
 20
12.202136
  0
VERTEX
  8
FOREGROUND
  6
CONTINUOUS
 10
2.632361
 20
12.244272
  0
VERTEX
  8
FOREGROUND
  6
CONTINUOUS
 10
2.733843
 20
12.286707
  0
VERTEX
  8
FOREGROUND
  6
CONTINUOUS
 10
2.830209
 20
12.331815
  0
VERTEX
  8
FOREGROUND
  6
CONTINUOUS
 10
2.921679
 20
12.379595
  0
VERTEX
  8
FOREGROUND
  6
CONTINUOUS
 10
17.078625
 20
12.379595
  0
VERTEX
  8
FOREGROUND
  6
CONTINUOUS
 10
17.170096
 20
12.331815
  0
VERTEX
  8
FOREGROUND
  6
CONTINUOUS
 10
17.266461
 20
12.286707
  0
VERTEX
  8
FOREGROUND
  6
CONTINUOUS
 10
17.367943
 20
12.244272
  0
VERTEX
  8
FOREGROUND
  6
CONTINUOUS
 10
17.476728
 20
12.202136
  0
VERTEX
  8
FOREGROUND
  6
CONTINUOUS
 10
17.586849
 20
12.163785
  0
VERTEX
  8
FOREGROUND
  6
CONTINUOUS
 10
17.698305
 20
12.129000
  0
SEQEND
  8
0
  0
POLYLINE
  8
FOREGROUND
  6
CONTINUOUS
 66
     1
 40
0.042000
 41
0.042000
 70
     1
  0
VERTEX
  8
FOREGROUND
  6
CONTINUOUS
 10
9.739000
 20
34.935063
  0
VERTEX
  8
FOREGROUND
  6
CONTINUOUS
 10
9.704278
 20
34.890796
  0
VERTEX
  8
FOREGROUND
  6
CONTINUOUS
 10
9.683444
 20
34.841197
  0
VERTEX
  8
FOREGROUND
  6
CONTINUOUS
 10
9.676500
 20
34.786264
  0
VERTEX
  8
FOREGROUND
  6
CONTINUOUS
 10
9.682847
 20
34.733635
  0
VERTEX
  8
FOREGROUND
  6
CONTINUOUS
 10
9.701889
 20
34.685880
  0
VERTEX
  8
FOREGROUND
  6
CONTINUOUS
 10
9.733624
 20
34.643000
  0
VERTEX
  8
FOREGROUND
  6
CONTINUOUS
 10
9.551184
 20
34.643000
  0
VERTEX
  8
FOREGROUND
  6
CONTINUOUS
 10
9.484391
 20
34.368000
  0
VERTEX
  8
FOREGROUND
  6
CONTINUOUS
 10
9.072737
 20
34.368000
  0
VERTEX
  8
FOREGROUND
  6
CONTINUOUS
 10
8.942009
 20
33.917999
  0
VERTEX
  8
FOREGROUND
  6
CONTINUOUS
 10
11.035990
 20
33.917999
  0
VERTEX
  8
FOREGROUND
  6
CONTINUOUS
 10
10.905263
 20
34.368000
  0
VERTEX
  8
FOREGROUND
  6
CONTINUOUS
 10
10.493608
 20
34.368000
  0
VERTEX
  8
FOREGROUND
  6
CONTINUOUS
 10
10.426815
 20
34.643000
  0
VERTEX
  8
FOREGROUND
  6
CONTINUOUS
 10
10.244375
 20
34.643000
  0
VERTEX
  8
FOREGROUND
  6
CONTINUOUS
 10
10.276111
 20
34.685880
  0
VERTEX
  8
FOREGROUND
  6
CONTINUOUS
 10
10.295153
 20
34.733635
  0
VERTEX
  8
FOREGROUND
  6
CONTINUOUS
 10
10.301500
 20
34.786264
  0
VERTEX
  8
FOREGROUND
  6
CONTINUOUS
 10
10.294555
 20
34.841197
  0
VERTEX
  8
FOREGROUND
  6
CONTINUOUS
 10
10.273722
 20
34.890796
  0
VERTEX
  8
FOREGROUND
  6
CONTINUOUS
 10
10.239000
 20
34.935063
  0
VERTEX
  8
FOREGROUND
  6
CONTINUOUS
 10
10.239000
 20
35.035127
  0
VERTEX
  8
FOREGROUND
  6
CONTINUOUS
 10
10.439327
 20
35.092254
  0
VERTEX
  8
FOREGROUND
  6
CONTINUOUS
 10
10.906267
 20
35.228370
  0
VERTEX
  8
FOREGROUND
  6
CONTINUOUS
 10
11.273253
 20
35.347636
  0
VERTEX
  8
FOREGROUND
  6
CONTINUOUS
 10
11.540285
 20
35.450054
  0
VERTEX
  8
FOREGROUND
  6
CONTINUOUS
 10
11.725728
 20
35.538204
  0
VERTEX
  8
FOREGROUND
  6
CONTINUOUS
 10
11.889559
 20
35.632684
  0
VERTEX
  8
FOREGROUND
  6
CONTINUOUS
 10
12.031778
 20
35.733494
  0
VERTEX
  8
FOREGROUND
  6
CONTINUOUS
 10
12.155028
 20
35.843239
  0
VERTEX
  8
FOREGROUND
  6
CONTINUOUS
 10
12.255963
 20
35.959786
  0
VERTEX
  8
FOREGROUND
  6
CONTINUOUS
 10
12.334584
 20
36.083133
  0
VERTEX
  8
FOREGROUND
  6
CONTINUOUS
 10
12.354109
 20
36.131147
  0
VERTEX
  8
FOREGROUND
  6
CONTINUOUS
 10
12.365825
 20
36.187148
  0
VERTEX
  8
FOREGROUND
  6
CONTINUOUS
 10
12.369730
 20
36.251136
  0
VERTEX
  8
FOREGROUND
  6
CONTINUOUS
 10
12.369730
 20
36.700793
  0
VERTEX
  8
FOREGROUND
  6
CONTINUOUS
 10
12.443730
 20
36.700793
  0
VERTEX
  8
FOREGROUND
  6
CONTINUOUS
 10
12.443730
 20
37.075793
  0
VERTEX
  8
FOREGROUND
  6
CONTINUOUS
 10
12.369730
 20
37.075793
  0
VERTEX
  8
FOREGROUND
  6
CONTINUOUS
 10
12.369730
 20
37.610537
  0
VERTEX
  8
FOREGROUND
  6
CONTINUOUS
 10
12.279524
 20
37.610537
  0
VERTEX
  8
FOREGROUND
  6
CONTINUOUS
 10
12.317422
 20
37.651608
  0
VERTEX
  8
FOREGROUND
  6
CONTINUOUS
 10
12.345056
 20
37.701140
  0
VERTEX
  8
FOREGROUND
  6
CONTINUOUS
 10
12.362428
 20
37.759132
  0
VERTEX
  8
FOREGROUND
  6
CONTINUOUS
 10
12.368185
 20
37.794220
  0
VERTEX
  8
FOREGROUND
  6
CONTINUOUS
 10
12.371639
 20
37.829249
  0
VERTEX
  8
FOREGROUND
  6
CONTINUOUS
 10
12.372790
 20
37.864218
  0
VERTEX
  8
FOREGROUND
  6
CONTINUOUS
 10
12.354027
 20
37.997442
  0
VERTEX
  8
FOREGROUND
  6
CONTINUOUS
 10
12.297737
 20
38.147632
  0
VERTEX
  8
FOREGROUND
  6
CONTINUOUS
 10
12.203920
 20
38.314788
  0
VERTEX
  8
FOREGROUND
  6
CONTINUOUS
 10
12.119730
 20
38.446133
  0
VERTEX
  8
FOREGROUND
  6
CONTINUOUS
 10
12.035540
 20
38.314788
  0
VERTEX
  8
FOREGROUND
  6
CONTINUOUS
 10
11.941723
 20
38.147632
  0
VERTEX
  8
FOREGROUND
  6
CONTINUOUS
 10
11.885432
 20
37.997442
  0
VERTEX
  8
FOREGROUND
  6
CONTINUOUS
 10
11.866669
 20
37.864218
  0
VERTEX
  8
FOREGROUND
  6
CONTINUOUS
 10
11.867820
 20
37.829249
  0
VERTEX
  8
FOREGROUND
  6
CONTINUOUS
 10
11.871274
 20
37.794220
  0
VERTEX
  8
FOREGROUND
  6
CONTINUOUS
 10
11.877032
 20
37.759132
  0
VERTEX
  8
FOREGROUND
  6
CONTINUOUS
 10
11.894238
 20
37.701356
  0
VERTEX
  8
FOREGROUND
  6
CONTINUOUS
 10
11.921506
 20
37.651825
  0
VERTEX
  8
FOREGROUND
  6
CONTINUOUS
 10
11.958833
 20
37.610537
  0
VERTEX
  8
FOREGROUND
  6
CONTINUOUS
 10
11.869730
 20
37.610537
  0
VERTEX
  8
FOREGROUND
  6
CONTINUOUS
 10
11.869730
 20
37.075793
  0
VERTEX
  8
FOREGROUND
  6
CONTINUOUS
 10
11.794557
 20
37.075793
  0
VERTEX
  8
FOREGROUND
  6
CONTINUOUS
 10
11.794557
 20
36.700793
  0
VERTEX
  8
FOREGROUND
  6
CONTINUOUS
 10
11.869730
 20
36.700793
  0
VERTEX
  8
FOREGROUND
  6
CONTINUOUS
 10
11.869730
 20
36.278974
  0
VERTEX
  8
FOREGROUND
  6
CONTINUOUS
 10
11.751824
 20
36.149367
  0
VERTEX
  8
FOREGROUND
  6
CONTINUOUS
 10
11.575779
 20
36.026003
  0
VERTEX
  8
FOREGROUND
  6
CONTINUOUS
 10
11.341594
 20
35.908881
  0
VERTEX
  8
FOREGROUND
  6
CONTINUOUS
 10
11.095536
 20
35.814915
  0
VERTEX
  8
FOREGROUND
  6
CONTINUOUS
 10
10.749836
 20
35.703126
  0
VERTEX
  8
FOREGROUND
  6
CONTINUOUS
 10
10.304439
 20
35.573716
  0
VERTEX
  8
FOREGROUND
  6
CONTINUOUS
 10
10.239000
 20
35.555174
  0
VERTEX
  8
FOREGROUND
  6
CONTINUOUS
 10
10.239000
 20
35.653790
  0
VERTEX
  8
FOREGROUND
  6
CONTINUOUS
 10
10.479796
 20
35.710004
  0
VERTEX
  8
FOREGROUND
  6
CONTINUOUS
 10
10.683655
 20
35.763914
  0
VERTEX
  8
FOREGROUND
  6
CONTINUOUS
 10
10.850574
 20
35.815520
  0
VERTEX
  8
FOREGROUND
  6
CONTINUOUS
 10
11.043990
 20
35.888591
  0
VERTEX
  8
FOREGROUND
  6
CONTINUOUS
 10
11.217854
 20
35.969689
  0
VERTEX
  8
FOREGROUND
  6
CONTINUOUS
 10
11.372166
 20
36.058812
  0
VERTEX
  8
FOREGROUND
  6
CONTINUOUS
 10
11.462712
 20
36.121578
  0
VERTEX
  8
FOREGROUND
  6
CONTINUOUS
 10
11.544962
 20
36.187842
  0
VERTEX
  8
FOREGROUND
  6
CONTINUOUS
 10
11.618918
 20
36.257602
  0
VERTEX
  8
FOREGROUND
  6
CONTINUOUS
 10
11.673963
 20
36.326103
  0
VERTEX
  8
FOREGROUND
  6
CONTINUOUS
 10
11.706991
 20
36.396277
  0
VERTEX
  8
FOREGROUND
  6
CONTINUOUS
 10
11.718000
 20
36.468123
  0
VERTEX
  8
FOREGROUND
  6
CONTINUOUS
 10
11.718000
 20
37.019017
  0
VERTEX
  8
FOREGROUND
  6
CONTINUOUS
 10
11.792000
 20
37.019017
  0
VERTEX
  8
FOREGROUND
  6
CONTINUOUS
 10
11.792000
 20
37.394018
  0
VERTEX
  8
FOREGROUND
  6
CONTINUOUS
 10
11.718000
 20
37.394018
  0
VERTEX
  8
FOREGROUND
  6
CONTINUOUS
 10
11.718000
 20
37.922805
  0
VERTEX
  8
FOREGROUND
  6
CONTINUOUS
 10
11.627795
 20
37.922805
  0
VERTEX
  8
FOREGROUND
  6
CONTINUOUS
 10
11.665692
 20
37.963877
  0
VERTEX
  8
FOREGROUND
  6
CONTINUOUS
 10
11.693326
 20
38.013409
  0
VERTEX
  8
FOREGROUND
  6
CONTINUOUS
 10
11.710698
 20
38.071401
  0
VERTEX
  8
FOREGROUND
  6
CONTINUOUS
 10
11.716455
 20
38.106489
  0
VERTEX
  8
FOREGROUND
  6
CONTINUOUS
 10
11.719909
 20
38.141518
  0
VERTEX
  8
FOREGROUND
  6
CONTINUOUS
 10
11.721061
 20
38.176487
  0
VERTEX
  8
FOREGROUND
  6
CONTINUOUS
 10
11.702297
 20
38.309711
  0
VERTEX
  8
FOREGROUND
  6
CONTINUOUS
 10
11.646007
 20
38.459901
  0
VERTEX
  8
FOREGROUND
  6
CONTINUOUS
 10
11.552190
 20
38.627057
  0
VERTEX
  8
FOREGROUND
  6
CONTINUOUS
 10
11.468000
 20
38.758402
  0
VERTEX
  8
FOREGROUND
  6
CONTINUOUS
 10
11.383810
 20
38.627057
  0
VERTEX
  8
FOREGROUND
  6
CONTINUOUS
 10
11.289993
 20
38.459901
  0
VERTEX
  8
FOREGROUND
  6
CONTINUOUS
 10
11.233702
 20
38.309711
  0
VERTEX
  8
FOREGROUND
  6
CONTINUOUS
 10
11.214939
 20
38.176487
  0
VERTEX
  8
FOREGROUND
  6
CONTINUOUS
 10
11.216090
 20
38.141518
  0
VERTEX
  8
FOREGROUND
  6
CONTINUOUS
 10
11.219544
 20
38.106489
  0
VERTEX
  8
FOREGROUND
  6
CONTINUOUS
 10
11.225301
 20
38.071401
  0
VERTEX
  8
FOREGROUND
  6
CONTINUOUS
 10
11.242508
 20
38.013625
  0
VERTEX
  8
FOREGROUND
  6
CONTINUOUS
 10
11.269776
 20
37.964093
  0
VERTEX
  8
FOREGROUND
  6
CONTINUOUS
 10
11.307104
 20
37.922805
  0
VERTEX
  8
FOREGROUND
  6
CONTINUOUS
 10
11.218000
 20
37.922805
  0
VERTEX
  8
FOREGROUND
  6
CONTINUOUS
 10
11.218000
 20
37.394018
  0
VERTEX
  8
FOREGROUND
  6
CONTINUOUS
 10
11.142828
 20
37.394018
  0
VERTEX
  8
FOREGROUND
  6
CONTINUOUS
 10
11.142828
 20
37.019017
  0
VERTEX
  8
FOREGROUND
  6
CONTINUOUS
 10
11.218000
 20
37.019017
  0
VERTEX
  8
FOREGROUND
  6
CONTINUOUS
 10
11.218000
 20
36.566060
  0
VERTEX
  8
FOREGROUND
  6
CONTINUOUS
 10
11.078628
 20
36.464483
  0
VERTEX
  8
FOREGROUND
  6
CONTINUOUS
 10
10.902522
 20
36.372105
  0
VERTEX
  8
FOREGROUND
  6
CONTINUOUS
 10
10.689680
 20
36.288926
  0
VERTEX
  8
FOREGROUND
  6
CONTINUOUS
 10
10.565474
 20
36.250118
  0
VERTEX
  8
FOREGROUND
  6
CONTINUOUS
 10
10.415247
 20
36.209279
  0
VERTEX
  8
FOREGROUND
  6
CONTINUOUS
 10
10.239000
 20
36.166408
  0
VERTEX
  8
FOREGROUND
  6
CONTINUOUS
 10
10.239000
 20
36.260618
  0
VERTEX
  8
FOREGROUND
  6
CONTINUOUS
 10
10.384814
 20
36.298379
  0
VERTEX
  8
FOREGROUND
  6
CONTINUOUS
 10
10.519323
 20
36.344658
  0
VERTEX
  8
FOREGROUND
  6
CONTINUOUS
 10
10.642527
 20
36.399454
  0
VERTEX
  8
FOREGROUND
  6
CONTINUOUS
 10
10.749416
 20
36.459587
  0
VERTEX
  8
FOREGROUND
  6
CONTINUOUS
 10
10.846062
 20
36.527440
  0
VERTEX
  8
FOREGROUND
  6
CONTINUOUS
 10
10.932465
 20
36.603013
  0
VERTEX
  8
FOREGROUND
  6
CONTINUOUS
 10
10.968670
 20
36.651185
  0
VERTEX
  8
FOREGROUND
  6
CONTINUOUS
 10
10.990394
 20
36.710784
  0
VERTEX
  8
FOREGROUND
  6
CONTINUOUS
 10
10.997635
 20
36.781810
  0
VERTEX
  8
FOREGROUND
  6
CONTINUOUS
 10
10.997635
 20
37.342442
  0
VERTEX
  8
FOREGROUND
  6
CONTINUOUS
 10
11.071635
 20
37.342442
  0
VERTEX
  8
FOREGROUND
  6
CONTINUOUS
 10
11.071635
 20
37.717443
  0
VERTEX
  8
FOREGROUND
  6
CONTINUOUS
 10
10.997635
 20
37.717443
  0
VERTEX
  8
FOREGROUND
  6
CONTINUOUS
 10
10.997635
 20
38.222405
  0
VERTEX
  8
FOREGROUND
  6
CONTINUOUS
 10
10.907430
 20
38.222405
  0
VERTEX
  8
FOREGROUND
  6
CONTINUOUS
 10
10.945327
 20
38.263476
  0
VERTEX
  8
FOREGROUND
  6
CONTINUOUS
 10
10.972961
 20
38.313008
  0
VERTEX
  8
FOREGROUND
  6
CONTINUOUS
 10
10.990333
 20
38.371000
  0
VERTEX
  8
FOREGROUND
  6
CONTINUOUS
 10
10.996090
 20
38.406089
  0
VERTEX
  8
FOREGROUND
  6
CONTINUOUS
 10
10.999545
 20
38.441117
  0
VERTEX
  8
FOREGROUND
  6
CONTINUOUS
 10
11.000696
 20
38.476086
  0
VERTEX
  8
FOREGROUND
  6
CONTINUOUS
 10
10.981933
 20
38.609310
  0
VERTEX
  8
FOREGROUND
  6
CONTINUOUS
 10
10.925642
 20
38.759501
  0
VERTEX
  8
FOREGROUND
  6
CONTINUOUS
 10
10.831825
 20
38.926656
  0
VERTEX
  8
FOREGROUND
  6
CONTINUOUS
 10
10.747635
 20
39.058001
  0
VERTEX
  8
FOREGROUND
  6
CONTINUOUS
 10
10.663445
 20
38.926656
  0
VERTEX
  8
FOREGROUND
  6
CONTINUOUS
 10
10.569628
 20
38.759501
  0
VERTEX
  8
FOREGROUND
  6
CONTINUOUS
 10
10.513337
 20
38.609310
  0
VERTEX
  8
FOREGROUND
  6
CONTINUOUS
 10
10.494574
 20
38.476086
  0
VERTEX
  8
FOREGROUND
  6
CONTINUOUS
 10
10.495725
 20
38.441117
  0
VERTEX
  8
FOREGROUND
  6
CONTINUOUS
 10
10.499180
 20
38.406089
  0
VERTEX
  8
FOREGROUND
  6
CONTINUOUS
 10
10.504937
 20
38.371000
  0
VERTEX
  8
FOREGROUND
  6
CONTINUOUS
 10
10.522144
 20
38.313225
  0
VERTEX
  8
FOREGROUND
  6
CONTINUOUS
 10
10.549411
 20
38.263693
  0
VERTEX
  8
FOREGROUND
  6
CONTINUOUS
 10
10.586739
 20
38.222405
  0
VERTEX
  8
FOREGROUND
  6
CONTINUOUS
 10
10.497635
 20
38.222405
  0
VERTEX
  8
FOREGROUND
  6
CONTINUOUS
 10
10.497635
 20
37.717443
  0
VERTEX
  8
FOREGROUND
  6
CONTINUOUS
 10
10.422462
 20
37.717443
  0
VERTEX
  8
FOREGROUND
  6
CONTINUOUS
 10
10.422462
 20
37.342442
  0
VERTEX
  8
FOREGROUND
  6
CONTINUOUS
 10
10.497635
 20
37.342442
  0
VERTEX
  8
FOREGROUND
  6
CONTINUOUS
 10
10.497635
 20
36.892017
  0
VERTEX
  8
FOREGROUND
  6
CONTINUOUS
 10
10.422152
 20
36.848007
  0
VERTEX
  8
FOREGROUND
  6
CONTINUOUS
 10
10.335940
 20
36.809461
  0
VERTEX
  8
FOREGROUND
  6
CONTINUOUS
 10
10.239000
 20
36.776379
  0
VERTEX
  8
FOREGROUND
  6
CONTINUOUS
 10
10.239000
 20
37.540000
  0
VERTEX
  8
FOREGROUND
  6
CONTINUOUS
 10
10.314172
 20
37.540000
  0
VERTEX
  8
FOREGROUND
  6
CONTINUOUS
 10
10.314172
 20
37.915000
  0
VERTEX
  8
FOREGROUND
  6
CONTINUOUS
 10
10.239000
 20
37.915000
  0
VERTEX
  8
FOREGROUND
  6
CONTINUOUS
 10
10.239000
 20
38.551000
  0
VERTEX
  8
FOREGROUND
  6
CONTINUOUS
 10
10.149625
 20
38.551000
  0
VERTEX
  8
FOREGROUND
  6
CONTINUOUS
 10
10.187092
 20
38.592228
  0
VERTEX
  8
FOREGROUND
  6
CONTINUOUS
 10
10.214449
 20
38.641760
  0
VERTEX
  8
FOREGROUND
  6
CONTINUOUS
 10
10.231698
 20
38.699595
  0
VERTEX
  8
FOREGROUND
  6
CONTINUOUS
 10
10.237455
 20
38.734683
  0
VERTEX
  8
FOREGROUND
  6
CONTINUOUS
 10
10.240909
 20
38.769712
  0
VERTEX
  8
FOREGROUND
  6
CONTINUOUS
 10
10.242061
 20
38.804681
  0
VERTEX
  8
FOREGROUND
  6
CONTINUOUS
 10
10.223297
 20
38.937905
  0
VERTEX
  8
FOREGROUND
  6
CONTINUOUS
 10
10.167007
 20
39.088095
  0
VERTEX
  8
FOREGROUND
  6
CONTINUOUS
 10
10.073189
 20
39.255251
  0
VERTEX
  8
FOREGROUND
  6
CONTINUOUS
 10
9.989000
 20
39.386596
  0
VERTEX
  8
FOREGROUND
  6
CONTINUOUS
 10
9.904810
 20
39.255251
  0
VERTEX
  8
FOREGROUND
  6
CONTINUOUS
 10
9.810993
 20
39.088095
  0
VERTEX
  8
FOREGROUND
  6
CONTINUOUS
 10
9.754703
 20
38.937905
  0
VERTEX
  8
FOREGROUND
  6
CONTINUOUS
 10
9.735939
 20
38.804681
  0
VERTEX
  8
FOREGROUND
  6
CONTINUOUS
 10
9.737091
 20
38.769712
  0
VERTEX
  8
FOREGROUND
  6
CONTINUOUS
 10
9.740545
 20
38.734683
  0
VERTEX
  8
FOREGROUND
  6
CONTINUOUS
 10
9.746302
 20
38.699595
  0
VERTEX
  8
FOREGROUND
  6
CONTINUOUS
 10
9.763713
 20
38.641567
  0
VERTEX
  8
FOREGROUND
  6
CONTINUOUS
 10
9.791443
 20
38.592036
  0
VERTEX
  8
FOREGROUND
  6
CONTINUOUS
 10
9.829494
 20
38.551000
  0
VERTEX
  8
FOREGROUND
  6
CONTINUOUS
 10
9.739000
 20
38.551000
  0
VERTEX
  8
FOREGROUND
  6
CONTINUOUS
 10
9.739000
 20
37.915000
  0
VERTEX
  8
FOREGROUND
  6
CONTINUOUS
 10
9.665000
 20
37.915000
  0
VERTEX
  8
FOREGROUND
  6
CONTINUOUS
 10
9.665000
 20
37.540000
  0
VERTEX
  8
FOREGROUND
  6
CONTINUOUS
 10
9.739000
 20
37.540000
  0
VERTEX
  8
FOREGROUND
  6
CONTINUOUS
 10
9.739000
 20
36.775199
  0
VERTEX
  8
FOREGROUND
  6
CONTINUOUS
 10
9.640446
 20
36.808529
  0
VERTEX
  8
FOREGROUND
  6
CONTINUOUS
 10
9.552901
 20
36.847468
  0
VERTEX
  8
FOREGROUND
  6
CONTINUOUS
 10
9.476365
 20
36.892017
  0
VERTEX
  8
FOREGROUND
  6
CONTINUOUS
 10
9.476365
 20
37.342442
  0
VERTEX
  8
FOREGROUND
  6
CONTINUOUS
 10
9.551537
 20
37.342442
  0
VERTEX
  8
FOREGROUND
  6
CONTINUOUS
 10
9.551537
 20
37.717443
  0
VERTEX
  8
FOREGROUND
  6
CONTINUOUS
 10
9.476365
 20
37.717443
  0
VERTEX
  8
FOREGROUND
  6
CONTINUOUS
 10
9.476365
 20
38.222405
  0
VERTEX
  8
FOREGROUND
  6
CONTINUOUS
 10
9.387261
 20
38.222405
  0
VERTEX
  8
FOREGROUND
  6
CONTINUOUS
 10
9.424589
 20
38.263693
  0
VERTEX
  8
FOREGROUND
  6
CONTINUOUS
 10
9.451856
 20
38.313225
  0
VERTEX
  8
FOREGROUND
  6
CONTINUOUS
 10
9.469063
 20
38.371000
  0
VERTEX
  8
FOREGROUND
  6
CONTINUOUS
 10
9.474820
 20
38.406089
  0
VERTEX
  8
FOREGROUND
  6
CONTINUOUS
 10
9.478274
 20
38.441117
  0
VERTEX
  8
FOREGROUND
  6
CONTINUOUS
 10
9.479426
 20
38.476086
  0
VERTEX
  8
FOREGROUND
  6
CONTINUOUS
 10
9.460662
 20
38.609310
  0
VERTEX
  8
FOREGROUND
  6
CONTINUOUS
 10
9.404372
 20
38.759501
  0
VERTEX
  8
FOREGROUND
  6
CONTINUOUS
 10
9.310555
 20
38.926656
  0
VERTEX
  8
FOREGROUND
  6
CONTINUOUS
 10
9.226365
 20
39.058001
  0
VERTEX
  8
FOREGROUND
  6
CONTINUOUS
 10
9.142175
 20
38.926656
  0
VERTEX
  8
FOREGROUND
  6
CONTINUOUS
 10
9.048358
 20
38.759501
  0
VERTEX
  8
FOREGROUND
  6
CONTINUOUS
 10
8.992067
 20
38.609310
  0
VERTEX
  8
FOREGROUND
  6
CONTINUOUS
 10
8.973304
 20
38.476086
  0
VERTEX
  8
FOREGROUND
  6
CONTINUOUS
 10
8.974455
 20
38.441117
  0
VERTEX
  8
FOREGROUND
  6
CONTINUOUS
 10
8.977910
 20
38.406089
  0
VERTEX
  8
FOREGROUND
  6
CONTINUOUS
 10
8.983667
 20
38.371000
  0
VERTEX
  8
FOREGROUND
  6
CONTINUOUS
 10
9.001038
 20
38.313008
  0
VERTEX
  8
FOREGROUND
  6
CONTINUOUS
 10
9.028673
 20
38.263476
  0
VERTEX
  8
FOREGROUND
  6
CONTINUOUS
 10
9.066570
 20
38.222405
  0
VERTEX
  8
FOREGROUND
  6
CONTINUOUS
 10
8.976365
 20
38.222405
  0
VERTEX
  8
FOREGROUND
  6
CONTINUOUS
 10
8.976365
 20
37.717443
  0
VERTEX
  8
FOREGROUND
  6
CONTINUOUS
 10
8.902365
 20
37.717443
  0
VERTEX
  8
FOREGROUND
  6
CONTINUOUS
 10
8.902365
 20
37.342442
  0
VERTEX
  8
FOREGROUND
  6
CONTINUOUS
 10
8.976365
 20
37.342442
  0
VERTEX
  8
FOREGROUND
  6
CONTINUOUS
 10
8.976365
 20
36.781810
  0
VERTEX
  8
FOREGROUND
  6
CONTINUOUS
 10
8.983606
 20
36.710784
  0
VERTEX
  8
FOREGROUND
  6
CONTINUOUS
 10
9.005329
 20
36.651185
  0
VERTEX
  8
FOREGROUND
  6
CONTINUOUS
 10
9.041535
 20
36.603013
  0
VERTEX
  8
FOREGROUND
  6
CONTINUOUS
 10
9.127937
 20
36.527440
  0
VERTEX
  8
FOREGROUND
  6
CONTINUOUS
 10
9.224583
 20
36.459587
  0
VERTEX
  8
FOREGROUND
  6
CONTINUOUS
 10
9.331473
 20
36.399454
  0
VERTEX
  8
FOREGROUND
  6
CONTINUOUS
 10
9.455809
 20
36.344214
  0
VERTEX
  8
FOREGROUND
  6
CONTINUOUS
 10
9.591652
 20
36.297642
  0
VERTEX
  8
FOREGROUND
  6
CONTINUOUS
 10
9.739000
 20
36.259737
  0
VERTEX
  8
FOREGROUND
  6
CONTINUOUS
 10
9.739000
 20
36.165481
  0
VERTEX
  8
FOREGROUND
  6
CONTINUOUS
 10
9.561054
 20
36.208689
  0
VERTEX
  8
FOREGROUND
  6
CONTINUOUS
 10
9.409494
 20
36.249837
  0
VERTEX
  8
FOREGROUND
  6
CONTINUOUS
 10
9.284320
 20
36.288926
  0
VERTEX
  8
FOREGROUND
  6
CONTINUOUS
 10
9.071478
 20
36.372105
  0
VERTEX
  8
FOREGROUND
  6
CONTINUOUS
 10
8.895371
 20
36.464483
  0
VERTEX
  8
FOREGROUND
  6
CONTINUOUS
 10
8.756000
 20
36.566060
  0
VERTEX
  8
FOREGROUND
  6
CONTINUOUS
 10
8.756000
 20
37.019017
  0
VERTEX
  8
FOREGROUND
  6
CONTINUOUS
 10
8.831172
 20
37.019017
  0
VERTEX
  8
FOREGROUND
  6
CONTINUOUS
 10
8.831172
 20
37.394018
  0
VERTEX
  8
FOREGROUND
  6
CONTINUOUS
 10
8.756000
 20
37.394018
  0
VERTEX
  8
FOREGROUND
  6
CONTINUOUS
 10
8.756000
 20
37.922805
  0
VERTEX
  8
FOREGROUND
  6
CONTINUOUS
 10
8.666896
 20
37.922805
  0
VERTEX
  8
FOREGROUND
  6
CONTINUOUS
 10
8.704224
 20
37.964093
  0
VERTEX
  8
FOREGROUND
  6
CONTINUOUS
 10
8.731491
 20
38.013625
  0
VERTEX
  8
FOREGROUND
  6
CONTINUOUS
 10
8.748698
 20
38.071401
  0
VERTEX
  8
FOREGROUND
  6
CONTINUOUS
 10
8.754455
 20
38.106489
  0
VERTEX
  8
FOREGROUND
  6
CONTINUOUS
 10
8.757910
 20
38.141518
  0
VERTEX
  8
FOREGROUND
  6
CONTINUOUS
 10
8.759061
 20
38.176487
  0
VERTEX
  8
FOREGROUND
  6
CONTINUOUS
 10
8.740298
 20
38.309711
  0
VERTEX
  8
FOREGROUND
  6
CONTINUOUS
 10
8.684007
 20
38.459901
  0
VERTEX
  8
FOREGROUND
  6
CONTINUOUS
 10
8.590190
 20
38.627057
  0
VERTEX
  8
FOREGROUND
  6
CONTINUOUS
 10
8.506000
 20
38.758402
  0
VERTEX
  8
FOREGROUND
  6
CONTINUOUS
 10
8.421810
 20
38.627057
  0
VERTEX
  8
FOREGROUND
  6
CONTINUOUS
 10
8.327993
 20
38.459901
  0
VERTEX
  8
FOREGROUND
  6
CONTINUOUS
 10
8.271703
 20
38.309711
  0
VERTEX
  8
FOREGROUND
  6
CONTINUOUS
 10
8.252939
 20
38.176487
  0
VERTEX
  8
FOREGROUND
  6
CONTINUOUS
 10
8.254091
 20
38.141518
  0
VERTEX
  8
FOREGROUND
  6
CONTINUOUS
 10
8.257545
 20
38.106489
  0
VERTEX
  8
FOREGROUND
  6
CONTINUOUS
 10
8.263302
 20
38.071401
  0
VERTEX
  8
FOREGROUND
  6
CONTINUOUS
 10
8.280673
 20
38.013409
  0
VERTEX
  8
FOREGROUND
  6
CONTINUOUS
 10
8.308308
 20
37.963877
  0
VERTEX
  8
FOREGROUND
  6
CONTINUOUS
 10
8.346205
 20
37.922805
  0
VERTEX
  8
FOREGROUND
  6
CONTINUOUS
 10
8.256000
 20
37.922805
  0
VERTEX
  8
FOREGROUND
  6
CONTINUOUS
 10
8.256000
 20
37.394018
  0
VERTEX
  8
FOREGROUND
  6
CONTINUOUS
 10
8.182000
 20
37.394018
  0
VERTEX
  8
FOREGROUND
  6
CONTINUOUS
 10
8.182000
 20
37.019017
  0
VERTEX
  8
FOREGROUND
  6
CONTINUOUS
 10
8.256000
 20
37.019017
  0
VERTEX
  8
FOREGROUND
  6
CONTINUOUS
 10
8.256000
 20
36.468123
  0
VERTEX
  8
FOREGROUND
  6
CONTINUOUS
 10
8.267009
 20
36.396277
  0
VERTEX
  8
FOREGROUND
  6
CONTINUOUS
 10
8.300036
 20
36.326103
  0
VERTEX
  8
FOREGROUND
  6
CONTINUOUS
 10
8.355082
 20
36.257602
  0
VERTEX
  8
FOREGROUND
  6
CONTINUOUS
 10
8.429038
 20
36.187842
  0
VERTEX
  8
FOREGROUND
  6
CONTINUOUS
 10
8.511288
 20
36.121578
  0
VERTEX
  8
FOREGROUND
  6
CONTINUOUS
 10
8.601833
 20
36.058812
  0
VERTEX
  8
FOREGROUND
  6
CONTINUOUS
 10
8.756145
 20
35.969688
  0
VERTEX
  8
FOREGROUND
  6
CONTINUOUS
 10
8.930009
 20
35.888591
  0
VERTEX
  8
FOREGROUND
  6
CONTINUOUS
 10
9.123426
 20
35.815520
  0
VERTEX
  8
FOREGROUND
  6
CONTINUOUS
 10
9.291296
 20
35.763644
  0
VERTEX
  8
FOREGROUND
  6
CONTINUOUS
 10
9.496487
 20
35.709439
  0
VERTEX
  8
FOREGROUND
  6
CONTINUOUS
 10
9.739000
 20
35.652906
  0
VERTEX
  8
FOREGROUND
  6
CONTINUOUS
 10
9.739000
 20
35.554040
  0
VERTEX
  8
FOREGROUND
  6
CONTINUOUS
 10
9.669561
 20
35.573716
  0
VERTEX
  8
FOREGROUND
  6
CONTINUOUS
 10
9.224164
 20
35.703126
  0
VERTEX
  8
FOREGROUND
  6
CONTINUOUS
 10
8.878464
 20
35.814915
  0
VERTEX
  8
FOREGROUND
  6
CONTINUOUS
 10
8.632406
 20
35.908881
  0
VERTEX
  8
FOREGROUND
  6
CONTINUOUS
 10
8.398221
 20
36.026003
  0
VERTEX
  8
FOREGROUND
  6
CONTINUOUS
 10
8.222175
 20
36.149367
  0
VERTEX
  8
FOREGROUND
  6
CONTINUOUS
 10
8.104270
 20
36.278974
  0
VERTEX
  8
FOREGROUND
  6
CONTINUOUS
 10
8.104270
 20
36.700793
  0
VERTEX
  8
FOREGROUND
  6
CONTINUOUS
 10
8.179443
 20
36.700793
  0
VERTEX
  8
FOREGROUND
  6
CONTINUOUS
 10
8.179443
 20
37.075793
  0
VERTEX
  8
FOREGROUND
  6
CONTINUOUS
 10
8.104270
 20
37.075793
  0
VERTEX
  8
FOREGROUND
  6
CONTINUOUS
 10
8.104270
 20
37.610537
  0
VERTEX
  8
FOREGROUND
  6
CONTINUOUS
 10
8.015166
 20
37.610537
  0
VERTEX
  8
FOREGROUND
  6
CONTINUOUS
 10
8.052494
 20
37.651825
  0
VERTEX
  8
FOREGROUND
  6
CONTINUOUS
 10
8.079761
 20
37.701356
  0
VERTEX
  8
FOREGROUND
  6
CONTINUOUS
 10
8.096968
 20
37.759132
  0
VERTEX
  8
FOREGROUND
  6
CONTINUOUS
 10
8.102725
 20
37.794220
  0
VERTEX
  8
FOREGROUND
  6
CONTINUOUS
 10
8.106179
 20
37.829249
  0
VERTEX
  8
FOREGROUND
  6
CONTINUOUS
 10
8.107331
 20
37.864218
  0
VERTEX
  8
FOREGROUND
  6
CONTINUOUS
 10
8.088567
 20
37.997442
  0
VERTEX
  8
FOREGROUND
  6
CONTINUOUS
 10
8.032277
 20
38.147632
  0
VERTEX
  8
FOREGROUND
  6
CONTINUOUS
 10
7.938460
 20
38.314788
  0
VERTEX
  8
FOREGROUND
  6
CONTINUOUS
 10
7.854270
 20
38.446133
  0
VERTEX
  8
FOREGROUND
  6
CONTINUOUS
 10
7.770080
 20
38.314788
  0
VERTEX
  8
FOREGROUND
  6
CONTINUOUS
 10
7.676263
 20
38.147632
  0
VERTEX
  8
FOREGROUND
  6
CONTINUOUS
 10
7.619973
 20
37.997442
  0
VERTEX
  8
FOREGROUND
  6
CONTINUOUS
 10
7.601209
 20
37.864218
  0
VERTEX
  8
FOREGROUND
  6
CONTINUOUS
 10
7.602361
 20
37.829249
  0
VERTEX
  8
FOREGROUND
  6
CONTINUOUS
 10
7.605815
 20
37.794220
  0
VERTEX
  8
FOREGROUND
  6
CONTINUOUS
 10
7.611572
 20
37.759132
  0
VERTEX
  8
FOREGROUND
  6
CONTINUOUS
 10
7.628944
 20
37.701140
  0
VERTEX
  8
FOREGROUND
  6
CONTINUOUS
 10
7.656578
 20
37.651608
  0
VERTEX
  8
FOREGROUND
  6
CONTINUOUS
 10
7.694475
 20
37.610537
  0
VERTEX
  8
FOREGROUND
  6
CONTINUOUS
 10
7.604270
 20
37.610537
  0
VERTEX
  8
FOREGROUND
  6
CONTINUOUS
 10
7.604270
 20
37.075793
  0
VERTEX
  8
FOREGROUND
  6
CONTINUOUS
 10
7.530270
 20
37.075793
  0
VERTEX
  8
FOREGROUND
  6
CONTINUOUS
 10
7.530270
 20
36.700793
  0
VERTEX
  8
FOREGROUND
  6
CONTINUOUS
 10
7.604270
 20
36.700793
  0
VERTEX
  8
FOREGROUND
  6
CONTINUOUS
 10
7.604270
 20
36.251136
  0
VERTEX
  8
FOREGROUND
  6
CONTINUOUS
 10
7.608175
 20
36.187148
  0
VERTEX
  8
FOREGROUND
  6
CONTINUOUS
 10
7.619890
 20
36.131147
  0
VERTEX
  8
FOREGROUND
  6
CONTINUOUS
 10
7.639416
 20
36.083133
  0
VERTEX
  8
FOREGROUND
  6
CONTINUOUS
 10
7.718036
 20
35.959786
  0
VERTEX
  8
FOREGROUND
  6
CONTINUOUS
 10
7.818972
 20
35.843239
  0
VERTEX
  8
FOREGROUND
  6
CONTINUOUS
 10
7.942222
 20
35.733494
  0
VERTEX
  8
FOREGROUND
  6
CONTINUOUS
 10
8.084441
 20
35.632684
  0
VERTEX
  8
FOREGROUND
  6
CONTINUOUS
 10
8.248272
 20
35.538204
  0
VERTEX
  8
FOREGROUND
  6
CONTINUOUS
 10
8.433715
 20
35.450054
  0
VERTEX
  8
FOREGROUND
  6
CONTINUOUS
 10
8.700746
 20
35.347636
  0
VERTEX
  8
FOREGROUND
  6
CONTINUOUS
 10
9.067732
 20
35.228370
  0
VERTEX
  8
FOREGROUND
  6
CONTINUOUS
 10
9.534673
 20
35.092254
  0
VERTEX
  8
FOREGROUND
  6
CONTINUOUS
 10
9.739000
 20
35.033986
  0
SEQEND
  8
0
  0
POLYLINE
  8
FOREGROUND
  6
CONTINUOUS
 66
     1
 40
0.042000
 41
0.042000
 70
     1
  0
VERTEX
  8
FOREGROUND
  6
CONTINUOUS
 10
10.139000
 20
35.001363
  0
VERTEX
  8
FOREGROUND
  6
CONTINUOUS
 10
10.092334
 20
35.017280
  0
VERTEX
  8
FOREGROUND
  6
CONTINUOUS
 10
10.042334
 20
35.026831
  0
VERTEX
  8
FOREGROUND
  6
CONTINUOUS
 10
9.989000
 20
35.030015
  0
VERTEX
  8
FOREGROUND
  6
CONTINUOUS
 10
9.935665
 20
35.026831
  0
VERTEX
  8
FOREGROUND
  6
CONTINUOUS
 10
9.885665
 20
35.017280
  0
VERTEX
  8
FOREGROUND
  6
CONTINUOUS
 10
9.839000
 20
35.001363
  0
VERTEX
  8
FOREGROUND
  6
CONTINUOUS
 10
9.839000
 20
35.109456
  0
VERTEX
  8
FOREGROUND
  6
CONTINUOUS
 10
9.561849
 20
35.188491
  0
VERTEX
  8
FOREGROUND
  6
CONTINUOUS
 10
9.099134
 20
35.323315
  0
VERTEX
  8
FOREGROUND
  6
CONTINUOUS
 10
8.736335
 20
35.441091
  0
VERTEX
  8
FOREGROUND
  6
CONTINUOUS
 10
8.473453
 20
35.541819
  0
VERTEX
  8
FOREGROUND
  6
CONTINUOUS
 10
8.295836
 20
35.626171
  0
VERTEX
  8
FOREGROUND
  6
CONTINUOUS
 10
8.139442
 20
35.716203
  0
VERTEX
  8
FOREGROUND
  6
CONTINUOUS
 10
8.004270
 20
35.811916
  0
VERTEX
  8
FOREGROUND
  6
CONTINUOUS
 10
7.891223
 20
35.912401
  0
VERTEX
  8
FOREGROUND
  6
CONTINUOUS
 10
7.799030
 20
36.018469
  0
VERTEX
  8
FOREGROUND
  6
CONTINUOUS
 10
7.727691
 20
36.130118
  0
VERTEX
  8
FOREGROUND
  6
CONTINUOUS
 10
7.712845
 20
36.168762
  0
VERTEX
  8
FOREGROUND
  6
CONTINUOUS
 10
7.705955
 20
36.209573
  0
VERTEX
  8
FOREGROUND
  6
CONTINUOUS
 10
7.704270
 20
36.251136
  0
VERTEX
  8
FOREGROUND
  6
CONTINUOUS
 10
7.704270
 20
36.700793
  0
VERTEX
  8
FOREGROUND
  6
CONTINUOUS
 10
8.004270
 20
36.700793
  0
VERTEX
  8
FOREGROUND
  6
CONTINUOUS
 10
8.004270
 20
36.250155
  0
VERTEX
  8
FOREGROUND
  6
CONTINUOUS
 10
8.132705
 20
36.095516
  0
VERTEX
  8
FOREGROUND
  6
CONTINUOUS
 10
8.328838
 20
35.951169
  0
VERTEX
  8
FOREGROUND
  6
CONTINUOUS
 10
8.592668
 20
35.817116
  0
VERTEX
  8
FOREGROUND
  6
CONTINUOUS
 10
8.842945
 20
35.721510
  0
VERTEX
  8
FOREGROUND
  6
CONTINUOUS
 10
9.192934
 20
35.608274
  0
VERTEX
  8
FOREGROUND
  6
CONTINUOUS
 10
9.642633
 20
35.477409
  0
VERTEX
  8
FOREGROUND
  6
CONTINUOUS
 10
9.839000
 20
35.421768
  0
VERTEX
  8
FOREGROUND
  6
CONTINUOUS
 10
9.839000
 20
35.733483
  0
VERTEX
  8
FOREGROUND
  6
CONTINUOUS
 10
9.566183
 20
35.795346
  0
VERTEX
  8
FOREGROUND
  6
CONTINUOUS
 10
9.338384
 20
35.854252
  0
VERTEX
  8
FOREGROUND
  6
CONTINUOUS
 10
9.155604
 20
35.910201
  0
VERTEX
  8
FOREGROUND
  6
CONTINUOUS
 10
8.969807
 20
35.980333
  0
VERTEX
  8
FOREGROUND
  6
CONTINUOUS
 10
8.803272
 20
36.057890
  0
VERTEX
  8
FOREGROUND
  6
CONTINUOUS
 10
8.656000
 20
36.142871
  0
VERTEX
  8
FOREGROUND
  6
CONTINUOUS
 10
8.571607
 20
36.201340
  0
VERTEX
  8
FOREGROUND
  6
CONTINUOUS
 10
8.495154
 20
36.262868
  0
VERTEX
  8
FOREGROUND
  6
CONTINUOUS
 10
8.426639
 20
36.327457
  0
VERTEX
  8
FOREGROUND
  6
CONTINUOUS
 10
8.391643
 20
36.368700
  0
VERTEX
  8
FOREGROUND
  6
CONTINUOUS
 10
8.365973
 20
36.415569
  0
VERTEX
  8
FOREGROUND
  6
CONTINUOUS
 10
8.356000
 20
36.468123
  0
VERTEX
  8
FOREGROUND
  6
CONTINUOUS
 10
8.356000
 20
37.019018
  0
VERTEX
  8
FOREGROUND
  6
CONTINUOUS
 10
8.656000
 20
37.019018
  0
VERTEX
  8
FOREGROUND
  6
CONTINUOUS
 10
8.656000
 20
36.522348
  0
VERTEX
  8
FOREGROUND
  6
CONTINUOUS
 10
8.810176
 20
36.400229
  0
VERTEX
  8
FOREGROUND
  6
CONTINUOUS
 10
9.008890
 20
36.290861
  0
VERTEX
  8
FOREGROUND
  6
CONTINUOUS
 10
9.252141
 20
36.194245
  0
VERTEX
  8
FOREGROUND
  6
CONTINUOUS
 10
9.409523
 20
36.145829
  0
VERTEX
  8
FOREGROUND
  6
CONTINUOUS
 10
9.605142
 20
36.094565
  0
VERTEX
  8
FOREGROUND
  6
CONTINUOUS
 10
9.839000
 20
36.040452
  0
VERTEX
  8
FOREGROUND
  6
CONTINUOUS
 10
9.839000
 20
36.341667
  0
VERTEX
  8
FOREGROUND
  6
CONTINUOUS
 10
9.669185
 20
36.379604
  0
VERTEX
  8
FOREGROUND
  6
CONTINUOUS
 10
9.514973
 20
36.428652
  0
VERTEX
  8
FOREGROUND
  6
CONTINUOUS
 10
9.376365
 20
36.488812
  0
VERTEX
  8
FOREGROUND
  6
CONTINUOUS
 10
9.278425
 20
36.543862
  0
VERTEX
  8
FOREGROUND
  6
CONTINUOUS
 10
9.190112
 20
36.605769
  0
VERTEX
  8
FOREGROUND
  6
CONTINUOUS
 10
9.111428
 20
36.674532
  0
VERTEX
  8
FOREGROUND
  6
CONTINUOUS
 10
9.089661
 20
36.706161
  0
VERTEX
  8
FOREGROUND
  6
CONTINUOUS
 10
9.079117
 20
36.743047
  0
VERTEX
  8
FOREGROUND
  6
CONTINUOUS
 10
9.076365
 20
36.781810
  0
VERTEX
  8
FOREGROUND
  6
CONTINUOUS
 10
9.076365
 20
37.342442
  0
VERTEX
  8
FOREGROUND
  6
CONTINUOUS
 10
9.376365
 20
37.342442
  0
VERTEX
  8
FOREGROUND
  6
CONTINUOUS
 10
9.376365
 20
36.840911
  0
VERTEX
  8
FOREGROUND
  6
CONTINUOUS
 10
9.503014
 20
36.760709
  0
VERTEX
  8
FOREGROUND
  6
CONTINUOUS
 10
9.657225
 20
36.696161
  0
VERTEX
  8
FOREGROUND
  6
CONTINUOUS
 10
9.839000
 20
36.647268
  0
VERTEX
  8
FOREGROUND
  6
CONTINUOUS
 10
9.839000
 20
37.540000
  0
VERTEX
  8
FOREGROUND
  6
CONTINUOUS
 10
10.139000
 20
37.540000
  0
VERTEX
  8
FOREGROUND
  6
CONTINUOUS
 10
10.139000
 20
36.648112
  0
VERTEX
  8
FOREGROUND
  6
CONTINUOUS
 10
10.319066
 20
36.696937
  0
VERTEX
  8
FOREGROUND
  6
CONTINUOUS
 10
10.471944
 20
36.761204
  0
VERTEX
  8
FOREGROUND
  6
CONTINUOUS
 10
10.597635
 20
36.840911
  0
VERTEX
  8
FOREGROUND
  6
CONTINUOUS
 10
10.597635
 20
37.342442
  0
VERTEX
  8
FOREGROUND
  6
CONTINUOUS
 10
10.897635
 20
37.342442
  0
VERTEX
  8
FOREGROUND
  6
CONTINUOUS
 10
10.897635
 20
36.781810
  0
VERTEX
  8
FOREGROUND
  6
CONTINUOUS
 10
10.894883
 20
36.743047
  0
VERTEX
  8
FOREGROUND
  6
CONTINUOUS
 10
10.884339
 20
36.706161
  0
VERTEX
  8
FOREGROUND
  6
CONTINUOUS
 10
10.862571
 20
36.674532
  0
VERTEX
  8
FOREGROUND
  6
CONTINUOUS
 10
10.783887
 20
36.605769
  0
VERTEX
  8
FOREGROUND
  6
CONTINUOUS
 10
10.695575
 20
36.543862
  0
VERTEX
  8
FOREGROUND
  6
CONTINUOUS
 10
10.597635
 20
36.488812
  0
VERTEX
  8
FOREGROUND
  6
CONTINUOUS
 10
10.460126
 20
36.429063
  0
VERTEX
  8
FOREGROUND
  6
CONTINUOUS
 10
10.307248
 20
36.380259
  0
VERTEX
  8
FOREGROUND
  6
CONTINUOUS
 10
10.139000
 20
36.342400
  0
VERTEX
  8
FOREGROUND
  6
CONTINUOUS
 10
10.139000
 20
36.041331
  0
VERTEX
  8
FOREGROUND
  6
CONTINUOUS
 10
10.371122
 20
36.095121
  0
VERTEX
  8
FOREGROUND
  6
CONTINUOUS
 10
10.565408
 20
36.146092
  0
VERTEX
  8
FOREGROUND
  6
CONTINUOUS
 10
10.721859
 20
36.194245
  0
VERTEX
  8
FOREGROUND
  6
CONTINUOUS
 10
10.965110
 20
36.290861
  0
VERTEX
  8
FOREGROUND
  6
CONTINUOUS
 10
11.163823
 20
36.400229
  0
VERTEX
  8
FOREGROUND
  6
CONTINUOUS
 10
11.318000
 20
36.522348
  0
VERTEX
  8
FOREGROUND
  6
CONTINUOUS
 10
11.318000
 20
37.019018
  0
VERTEX
  8
FOREGROUND
  6
CONTINUOUS
 10
11.618000
 20
37.019018
  0
VERTEX
  8
FOREGROUND
  6
CONTINUOUS
 10
11.618000
 20
36.468123
  0
VERTEX
  8
FOREGROUND
  6
CONTINUOUS
 10
11.608027
 20
36.415569
  0
VERTEX
  8
FOREGROUND
  6
CONTINUOUS
 10
11.582357
 20
36.368700
  0
VERTEX
  8
FOREGROUND
  6
CONTINUOUS
 10
11.547361
 20
36.327457
  0
VERTEX
  8
FOREGROUND
  6
CONTINUOUS
 10
11.478846
 20
36.262869
  0
VERTEX
  8
FOREGROUND
  6
CONTINUOUS
 10
11.402392
 20
36.201340
  0
VERTEX
  8
FOREGROUND
  6
CONTINUOUS
 10
11.318000
 20
36.142871
  0
VERTEX
  8
FOREGROUND
  6
CONTINUOUS
 10
11.170728
 20
36.057890
  0
VERTEX
  8
FOREGROUND
  6
CONTINUOUS
 10
11.004193
 20
35.980333
  0
VERTEX
  8
FOREGROUND
  6
CONTINUOUS
 10
10.818396
 20
35.910201
  0
VERTEX
  8
FOREGROUND
  6
CONTINUOUS
 10
10.636543
 20
35.854511
  0
VERTEX
  8
FOREGROUND
  6
CONTINUOUS
 10
10.410077
 20
35.795892
  0
VERTEX
  8
FOREGROUND
  6
CONTINUOUS
 10
10.139000
 20
35.734342
  0
VERTEX
  8
FOREGROUND
  6
CONTINUOUS
 10
10.139000
 20
35.422901
  0
VERTEX
  8
FOREGROUND
  6
CONTINUOUS
 10
10.331367
 20
35.477409
  0
VERTEX
  8
FOREGROUND
  6
CONTINUOUS
 10
10.781066
 20
35.608274
  0
VERTEX
  8
FOREGROUND
  6
CONTINUOUS
 10
11.131054
 20
35.721509
  0
VERTEX
  8
FOREGROUND
  6
CONTINUOUS
 10
11.381332
 20
35.817116
  0
VERTEX
  8
FOREGROUND
  6
CONTINUOUS
 10
11.645162
 20
35.951169
  0
VERTEX
  8
FOREGROUND
  6
CONTINUOUS
 10
11.841294
 20
36.095516
  0
VERTEX
  8
FOREGROUND
  6
CONTINUOUS
 10
11.969729
 20
36.250155
  0
VERTEX
  8
FOREGROUND
  6
CONTINUOUS
 10
11.969729
 20
36.700793
  0
VERTEX
  8
FOREGROUND
  6
CONTINUOUS
 10
12.269730
 20
36.700793
  0
VERTEX
  8
FOREGROUND
  6
CONTINUOUS
 10
12.269730
 20
36.251136
  0
VERTEX
  8
FOREGROUND
  6
CONTINUOUS
 10
12.268044
 20
36.209573
  0
VERTEX
  8
FOREGROUND
  6
CONTINUOUS
 10
12.261154
 20
36.168762
  0
VERTEX
  8
FOREGROUND
  6
CONTINUOUS
 10
12.246309
 20
36.130118
  0
VERTEX
  8
FOREGROUND
  6
CONTINUOUS
 10
12.174970
 20
36.018469
  0
VERTEX
  8
FOREGROUND
  6
CONTINUOUS
 10
12.082777
 20
35.912401
  0
VERTEX
  8
FOREGROUND
  6
CONTINUOUS
 10
11.969729
 20
35.811916
  0
VERTEX
  8
FOREGROUND
  6
CONTINUOUS
 10
11.834558
 20
35.716203
  0
VERTEX
  8
FOREGROUND
  6
CONTINUOUS
 10
11.678163
 20
35.626171
  0
VERTEX
  8
FOREGROUND
  6
CONTINUOUS
 10
11.500547
 20
35.541819
  0
VERTEX
  8
FOREGROUND
  6
CONTINUOUS
 10
11.237665
 20
35.441091
  0
VERTEX
  8
FOREGROUND
  6
CONTINUOUS
 10
10.874866
 20
35.323315
  0
VERTEX
  8
FOREGROUND
  6
CONTINUOUS
 10
10.412151
 20
35.188491
  0
VERTEX
  8
FOREGROUND
  6
CONTINUOUS
 10
10.139000
 20
35.110596
  0
SEQEND
  8
0
  0
POLYLINE
  8
FOREGROUND
  6
CONTINUOUS
 66
     1
 40
0.042000
 41
0.042000
 70
     1
  0
VERTEX
  8
FOREGROUND
  6
CONTINUOUS
 10
17.659938
 20
35.325560
  0
VERTEX
  8
FOREGROUND
  6
CONTINUOUS
 10
17.744925
 20
35.409131
  0
VERTEX
  8
FOREGROUND
  6
CONTINUOUS
 10
17.829039
 20
35.483527
  0
VERTEX
  8
FOREGROUND
  6
CONTINUOUS
 10
17.909848
 20
35.548925
  0
VERTEX
  8
FOREGROUND
  6
CONTINUOUS
 10
17.978886
 20
35.206741
  0
VERTEX
  8
FOREGROUND
  6
CONTINUOUS
 10
18.026346
 20
34.862330
  0
VERTEX
  8
FOREGROUND
  6
CONTINUOUS
 10
18.043995
 20
34.513464
  0
VERTEX
  8
FOREGROUND
  6
CONTINUOUS
 10
18.040546
 20
34.362433
  0
VERTEX
  8
FOREGROUND
  6
CONTINUOUS
 10
18.029534
 20
34.210065
  0
VERTEX
  8
FOREGROUND
  6
CONTINUOUS
 10
18.009958
 20
34.056377
  0
VERTEX
  8
FOREGROUND
  6
CONTINUOUS
 10
17.901291
 20
33.744458
  0
VERTEX
  8
FOREGROUND
  6
CONTINUOUS
 10
17.703305
 20
33.498490
  0
VERTEX
  8
FOREGROUND
  6
CONTINUOUS
 10
17.446337
 20
33.321631
  0
VERTEX
  8
FOREGROUND
  6
CONTINUOUS
 10
17.431747
 20
33.313463
  0
VERTEX
  8
FOREGROUND
  6
CONTINUOUS
 10
17.412235
 20
33.301342
  0
VERTEX
  8
FOREGROUND
  6
CONTINUOUS
 10
17.394280
 20
33.288553
  0
VERTEX
  8
FOREGROUND
  6
CONTINUOUS
 10
17.539290
 20
33.064610
  0
VERTEX
  8
FOREGROUND
  6
CONTINUOUS
 10
17.677625
 20
32.823961
  0
VERTEX
  8
FOREGROUND
  6
CONTINUOUS
 10
17.805732
 20
32.569844
  0
VERTEX
  8
FOREGROUND
  6
CONTINUOUS
 10
17.837541
 20
32.500748
  0
VERTEX
  8
FOREGROUND
  6
CONTINUOUS
 10
17.868244
 20
32.431549
  0
VERTEX
  8
FOREGROUND
  6
CONTINUOUS
 10
17.897833
 20
32.362352
  0
VERTEX
  8
FOREGROUND
  6
CONTINUOUS
 10
17.831094
 20
32.723580
  0
VERTEX
  8
FOREGROUND
  6
CONTINUOUS
 10
17.757013
 20
33.051619
  0
VERTEX
  8
FOREGROUND
  6
CONTINUOUS
 10
17.675589
 20
33.346691
  0
VERTEX
  8
FOREGROUND
  6
CONTINUOUS
 10
17.722308
 20
33.382777
  0
VERTEX
  8
FOREGROUND
  6
CONTINUOUS
 10
17.766356
 20
33.420867
  0
VERTEX
  8
FOREGROUND
  6
CONTINUOUS
 10
17.807735
 20
33.460962
  0
VERTEX
  8
FOREGROUND
  6
CONTINUOUS
 10
17.896499
 20
33.154308
  0
VERTEX
  8
FOREGROUND
  6
CONTINUOUS
 10
17.976588
 20
32.812013
  0
VERTEX
  8
FOREGROUND
  6
CONTINUOUS
 10
18.048000
 20
32.434523
  0
VERTEX
  8
FOREGROUND
  6
CONTINUOUS
 10
18.048000
 20
31.373000
  0
VERTEX
  8
FOREGROUND
  6
CONTINUOUS
 10
18.044996
 20
31.382021
  0
VERTEX
  8
FOREGROUND
  6
CONTINUOUS
 10
17.973687
 20
31.665094
  0
VERTEX
  8
FOREGROUND
  6
CONTINUOUS
 10
17.885872
 20
31.946010
  0
VERTEX
  8
FOREGROUND
  6
CONTINUOUS
 10
17.781513
 20
32.224848
  0
VERTEX
  8
FOREGROUND
  6
CONTINUOUS
 10
17.660573
 20
32.501682
  0
VERTEX
  8
FOREGROUND
  6
CONTINUOUS
 10
17.544505
 20
32.731293
  0
VERTEX
  8
FOREGROUND
  6
CONTINUOUS
 10
17.418336
 20
32.951060
  0
VERTEX
  8
FOREGROUND
  6
CONTINUOUS
 10
17.288163
 20
33.155235
  0
VERTEX
  8
FOREGROUND
  6
CONTINUOUS
 10
17.080490
 20
33.063721
  0
VERTEX
  8
FOREGROUND
  6
CONTINUOUS
 10
16.848791
 20
32.987800
  0
VERTEX
  8
FOREGROUND
  6
CONTINUOUS
 10
16.606413
 20
32.933709
  0
VERTEX
  8
FOREGROUND
  6
CONTINUOUS
 10
16.537412
 20
32.929662
  0
VERTEX
  8
FOREGROUND
  6
CONTINUOUS
 10
16.470857
 20
32.921384
  0
VERTEX
  8
FOREGROUND
  6
CONTINUOUS
 10
16.407195
 20
32.908650
  0
VERTEX
  8
FOREGROUND
  6
CONTINUOUS
 10
16.371230
 20
32.906794
  0
VERTEX
  8
FOREGROUND
  6
CONTINUOUS
 10
16.335645
 20
32.905657
  0
VERTEX
  8
FOREGROUND
  6
CONTINUOUS
 10
16.300488
 20
32.905271
  0
VERTEX
  8
FOREGROUND
  6
CONTINUOUS
 10
16.225360
 20
32.907201
  0
VERTEX
  8
FOREGROUND
  6
CONTINUOUS
 10
16.152981
 20
32.913224
  0
VERTEX
  8
FOREGROUND
  6
CONTINUOUS
 10
16.083839
 20
32.923686
  0
VERTEX
  8
FOREGROUND
  6
CONTINUOUS
 10
15.727702
 20
33.029779
  0
VERTEX
  8
FOREGROUND
  6
CONTINUOUS
 10
15.474296
 20
33.198426
  0
VERTEX
  8
FOREGROUND
  6
CONTINUOUS
 10
15.321000
 20
33.437907
  0
VERTEX
  8
FOREGROUND
  6
CONTINUOUS
 10
15.436472
 20
33.468987
  0
VERTEX
  8
FOREGROUND
  6
CONTINUOUS
 10
15.545278
 20
33.512092
  0
VERTEX
  8
FOREGROUND
  6
CONTINUOUS
 10
15.651886
 20
33.561750
  0
VERTEX
  8
FOREGROUND
  6
CONTINUOUS
 10
15.749359
 20
33.607397
  0
VERTEX
  8
FOREGROUND
  6
CONTINUOUS
 10
15.851889
 20
33.649964
  0
VERTEX
  8
FOREGROUND
  6
CONTINUOUS
 10
15.962706
 20
33.685496
  0
VERTEX
  8
FOREGROUND
  6
CONTINUOUS
 10
16.044512
 20
33.702984
  0
VERTEX
  8
FOREGROUND
  6
CONTINUOUS
 10
16.128414
 20
33.713137
  0
VERTEX
  8
FOREGROUND
  6
CONTINUOUS
 10
16.213796
 20
33.716418
  0
VERTEX
  8
FOREGROUND
  6
CONTINUOUS
 10
16.505707
 20
33.682692
  0
VERTEX
  8
FOREGROUND
  6
CONTINUOUS
 10
16.783686
 20
33.593534
  0
VERTEX
  8
FOREGROUND
  6
CONTINUOUS
 10
17.023873
 20
33.466976
  0
VERTEX
  8
FOREGROUND
  6
CONTINUOUS
 10
17.026748
 20
33.465402
  0
VERTEX
  8
FOREGROUND
  6
CONTINUOUS
 10
17.029449
 20
33.464501
  0
VERTEX
  8
FOREGROUND
  6
CONTINUOUS
 10
17.031964
 20
33.464214
  0
VERTEX
  8
FOREGROUND
  6
CONTINUOUS
 10
17.038427
 20
33.466582
  0
VERTEX
  8
FOREGROUND
  6
CONTINUOUS
 10
17.042589
 20
33.472517
  0
VERTEX
  8
FOREGROUND
  6
CONTINUOUS
 10
17.044063
 20
33.480266
  0
VERTEX
  8
FOREGROUND
  6
CONTINUOUS
 10
17.043619
 20
33.484523
  0
VERTEX
  8
FOREGROUND
  6
CONTINUOUS
 10
17.042247
 20
33.488534
  0
VERTEX
  8
FOREGROUND
  6
CONTINUOUS
 10
17.039891
 20
33.492037
  0
VERTEX
  8
FOREGROUND
  6
CONTINUOUS
 10
17.037490
 20
33.495043
  0
VERTEX
  8
FOREGROUND
  6
CONTINUOUS
 10
17.026535
 20
33.508656
  0
VERTEX
  8
FOREGROUND
  6
CONTINUOUS
 10
17.015503
 20
33.521687
  0
VERTEX
  8
FOREGROUND
  6
CONTINUOUS
 10
17.003851
 20
33.534136
  0
VERTEX
  8
FOREGROUND
  6
CONTINUOUS
 10
16.772472
 20
33.673310
  0
VERTEX
  8
FOREGROUND
  6
CONTINUOUS
 10
16.541344
 20
33.833589
  0
VERTEX
  8
FOREGROUND
  6
CONTINUOUS
 10
16.321729
 20
34.015532
  0
VERTEX
  8
FOREGROUND
  6
CONTINUOUS
 10
16.124888
 20
34.219693
  0
VERTEX
  8
FOREGROUND
  6
CONTINUOUS
 10
15.962083
 20
34.446630
  0
VERTEX
  8
FOREGROUND
  6
CONTINUOUS
 10
15.844575
 20
34.696899
  0
VERTEX
  8
FOREGROUND
  6
CONTINUOUS
 10
15.798729
 20
34.875817
  0
VERTEX
  8
FOREGROUND
  6
CONTINUOUS
 10
15.778645
 20
35.050064
  0
VERTEX
  8
FOREGROUND
  6
CONTINUOUS
 10
15.771510
 20
35.219643
  0
VERTEX
  8
FOREGROUND
  6
CONTINUOUS
 10
15.771461
 20
35.221283
  0
VERTEX
  8
FOREGROUND
  6
CONTINUOUS
 10
15.767908
 20
35.324171
  0
VERTEX
  8
FOREGROUND
  6
CONTINUOUS
 10
15.761286
 20
35.425293
  0
VERTEX
  8
FOREGROUND
  6
CONTINUOUS
 10
15.748469
 20
35.524867
  0
VERTEX
  8
FOREGROUND
  6
CONTINUOUS
 10
16.129139
 20
35.426731
  0
VERTEX
  8
FOREGROUND
  6
CONTINUOUS
 10
16.434837
 20
35.241943
  0
VERTEX
  8
FOREGROUND
  6
CONTINUOUS
 10
16.702520
 20
34.984583
  0
VERTEX
  8
FOREGROUND
  6
CONTINUOUS
 10
16.864595
 20
34.758533
  0
VERTEX
  8
FOREGROUND
  6
CONTINUOUS
 10
16.977701
 20
34.507276
  0
VERTEX
  8
FOREGROUND
  6
CONTINUOUS
 10
17.052117
 20
34.240139
  0
VERTEX
  8
FOREGROUND
  6
CONTINUOUS
 10
17.098119
 20
33.966445
  0
VERTEX
  8
FOREGROUND
  6
CONTINUOUS
 10
17.125985
 20
33.695519
  0
VERTEX
  8
FOREGROUND
  6
CONTINUOUS
 10
17.126059
 20
33.693088
  0
VERTEX
  8
FOREGROUND
  6
CONTINUOUS
 10
17.126245
 20
33.690768
  0
VERTEX
  8
FOREGROUND
  6
CONTINUOUS
 10
17.126485
 20
33.688503
  0
VERTEX
  8
FOREGROUND
  6
CONTINUOUS
 10
17.126727
 20
33.686238
  0
VERTEX
  8
FOREGROUND
  6
CONTINUOUS
 10
17.126912
 20
33.683918
  0
VERTEX
  8
FOREGROUND
  6
CONTINUOUS
 10
17.126987
 20
33.681486
  0
VERTEX
  8
FOREGROUND
  6
CONTINUOUS
 10
17.126393
 20
33.668455
  0
VERTEX
  8
FOREGROUND
  6
CONTINUOUS
 10
17.124910
 20
33.655424
  0
VERTEX
  8
FOREGROUND
  6
CONTINUOUS
 10
17.122981
 20
33.642394
  0
VERTEX
  8
FOREGROUND
  6
CONTINUOUS
 10
17.154720
 20
33.605231
  0
VERTEX
  8
FOREGROUND
  6
CONTINUOUS
 10
17.186014
 20
33.567623
  0
VERTEX
  8
FOREGROUND
  6
CONTINUOUS
 10
17.217085
 20
33.529124
  0
VERTEX
  8
FOREGROUND
  6
CONTINUOUS
 10
17.211692
 20
33.554107
  0
VERTEX
  8
FOREGROUND
  6
CONTINUOUS
 10
17.207856
 20
33.578645
  0
VERTEX
  8
FOREGROUND
  6
CONTINUOUS
 10
17.206074
 20
33.602298
  0
VERTEX
  8
FOREGROUND
  6
CONTINUOUS
 10
17.200280
 20
33.697067
  0
VERTEX
  8
FOREGROUND
  6
CONTINUOUS
 10
17.189421
 20
33.792511
  0
VERTEX
  8
FOREGROUND
  6
CONTINUOUS
 10
17.176040
 20
33.887977
  0
VERTEX
  8
FOREGROUND
  6
CONTINUOUS
 10
17.161482
 20
33.993473
  0
VERTEX
  8
FOREGROUND
  6
CONTINUOUS
 10
17.150407
 20
34.099213
  0
VERTEX
  8
FOREGROUND
  6
CONTINUOUS
 10
17.146007
 20
34.204730
  0
VERTEX
  8
FOREGROUND
  6
CONTINUOUS
 10
17.146007
 20
34.219766
  0
VERTEX
  8
FOREGROUND
  6
CONTINUOUS
 10
17.192779
 20
34.551321
  0
VERTEX
  8
FOREGROUND
  6
CONTINUOUS
 10
17.308763
 20
34.848453
  0
VERTEX
  8
FOREGROUND
  6
CONTINUOUS
 10
17.472698
 20
35.107411
  0
VERTEX
  8
FOREGROUND
  6
CONTINUOUS
 10
17.532878
 20
35.183342
  0
VERTEX
  8
FOREGROUND
  6
CONTINUOUS
 10
17.595450
 20
35.256001
  0
SEQEND
  8
0
  0
POLYLINE
  8
FOREGROUND
  6
CONTINUOUS
 66
     1
 40
0.042000
 41
0.042000
 70
     1
  0
VERTEX
  8
FOREGROUND
  6
CONTINUOUS
 10
2.340062
 20
35.325560
  0
VERTEX
  8
FOREGROUND
  6
CONTINUOUS
 10
2.404549
 20
35.256001
  0
VERTEX
  8
FOREGROUND
  6
CONTINUOUS
 10
2.467122
 20
35.183342
  0
VERTEX
  8
FOREGROUND
  6
CONTINUOUS
 10
2.527302
 20
35.107411
  0
VERTEX
  8
FOREGROUND
  6
CONTINUOUS
 10
2.691237
 20
34.848453
  0
VERTEX
  8
FOREGROUND
  6
CONTINUOUS
 10
2.807221
 20
34.551321
  0
VERTEX
  8
FOREGROUND
  6
CONTINUOUS
 10
2.853993
 20
34.219766
  0
VERTEX
  8
FOREGROUND
  6
CONTINUOUS
 10
2.853993
 20
34.204730
  0
VERTEX
  8
FOREGROUND
  6
CONTINUOUS
 10
2.849592
 20
34.099213
  0
VERTEX
  8
FOREGROUND
  6
CONTINUOUS
 10
2.838518
 20
33.993473
  0
VERTEX
  8
FOREGROUND
  6
CONTINUOUS
 10
2.823960
 20
33.887977
  0
VERTEX
  8
FOREGROUND
  6
CONTINUOUS
 10
2.810578
 20
33.792511
  0
VERTEX
  8
FOREGROUND
  6
CONTINUOUS
 10
2.799720
 20
33.697067
  0
VERTEX
  8
FOREGROUND
  6
CONTINUOUS
 10
2.793926
 20
33.602298
  0
VERTEX
  8
FOREGROUND
  6
CONTINUOUS
 10
2.792144
 20
33.578645
  0
VERTEX
  8
FOREGROUND
  6
CONTINUOUS
 10
2.788308
 20
33.554107
  0
VERTEX
  8
FOREGROUND
  6
CONTINUOUS
 10
2.782915
 20
33.529124
  0
VERTEX
  8
FOREGROUND
  6
CONTINUOUS
 10
2.813986
 20
33.567623
  0
VERTEX
  8
FOREGROUND
  6
CONTINUOUS
 10
2.845280
 20
33.605231
  0
VERTEX
  8
FOREGROUND
  6
CONTINUOUS
 10
2.877018
 20
33.642394
  0
VERTEX
  8
FOREGROUND
  6
CONTINUOUS
 10
2.875090
 20
33.655424
  0
VERTEX
  8
FOREGROUND
  6
CONTINUOUS
 10
2.873606
 20
33.668455
  0
VERTEX
  8
FOREGROUND
  6
CONTINUOUS
 10
2.873013
 20
33.681486
  0
VERTEX
  8
FOREGROUND
  6
CONTINUOUS
 10
2.873087
 20
33.683918
  0
VERTEX
  8
FOREGROUND
  6
CONTINUOUS
 10
2.873273
 20
33.686238
  0
VERTEX
  8
FOREGROUND
  6
CONTINUOUS
 10
2.873515
 20
33.688503
  0
VERTEX
  8
FOREGROUND
  6
CONTINUOUS
 10
2.873755
 20
33.690768
  0
VERTEX
  8
FOREGROUND
  6
CONTINUOUS
 10
2.873940
 20
33.693088
  0
VERTEX
  8
FOREGROUND
  6
CONTINUOUS
 10
2.874014
 20
33.695519
  0
VERTEX
  8
FOREGROUND
  6
CONTINUOUS
 10
2.901881
 20
33.966445
  0
VERTEX
  8
FOREGROUND
  6
CONTINUOUS
 10
2.947883
 20
34.240139
  0
VERTEX
  8
FOREGROUND
  6
CONTINUOUS
 10
3.022298
 20
34.507276
  0
VERTEX
  8
FOREGROUND
  6
CONTINUOUS
 10
3.135405
 20
34.758533
  0
VERTEX
  8
FOREGROUND
  6
CONTINUOUS
 10
3.297480
 20
34.984583
  0
VERTEX
  8
FOREGROUND
  6
CONTINUOUS
 10
3.565162
 20
35.241943
  0
VERTEX
  8
FOREGROUND
  6
CONTINUOUS
 10
3.870860
 20
35.426731
  0
VERTEX
  8
FOREGROUND
  6
CONTINUOUS
 10
4.251530
 20
35.524867
  0
VERTEX
  8
FOREGROUND
  6
CONTINUOUS
 10
4.238713
 20
35.425293
  0
VERTEX
  8
FOREGROUND
  6
CONTINUOUS
 10
4.232092
 20
35.324171
  0
VERTEX
  8
FOREGROUND
  6
CONTINUOUS
 10
4.228538
 20
35.221283
  0
VERTEX
  8
FOREGROUND
  6
CONTINUOUS
 10
4.228489
 20
35.219643
  0
VERTEX
  8
FOREGROUND
  6
CONTINUOUS
 10
4.221355
 20
35.050064
  0
VERTEX
  8
FOREGROUND
  6
CONTINUOUS
 10
4.201271
 20
34.875817
  0
VERTEX
  8
FOREGROUND
  6
CONTINUOUS
 10
4.155424
 20
34.696899
  0
VERTEX
  8
FOREGROUND
  6
CONTINUOUS
 10
4.037917
 20
34.446630
  0
VERTEX
  8
FOREGROUND
  6
CONTINUOUS
 10
3.875112
 20
34.219693
  0
VERTEX
  8
FOREGROUND
  6
CONTINUOUS
 10
3.678271
 20
34.015532
  0
VERTEX
  8
FOREGROUND
  6
CONTINUOUS
 10
3.458656
 20
33.833589
  0
VERTEX
  8
FOREGROUND
  6
CONTINUOUS
 10
3.227528
 20
33.673310
  0
VERTEX
  8
FOREGROUND
  6
CONTINUOUS
 10
2.996149
 20
33.534136
  0
VERTEX
  8
FOREGROUND
  6
CONTINUOUS
 10
2.996149
 20
33.534136
  0
VERTEX
  8
FOREGROUND
  6
CONTINUOUS
 10
2.984497
 20
33.521687
  0
VERTEX
  8
FOREGROUND
  6
CONTINUOUS
 10
2.973465
 20
33.508656
  0
VERTEX
  8
FOREGROUND
  6
CONTINUOUS
 10
2.962510
 20
33.495043
  0
VERTEX
  8
FOREGROUND
  6
CONTINUOUS
 10
2.960109
 20
33.492037
  0
VERTEX
  8
FOREGROUND
  6
CONTINUOUS
 10
2.957752
 20
33.488534
  0
VERTEX
  8
FOREGROUND
  6
CONTINUOUS
 10
2.956381
 20
33.484523
  0
VERTEX
  8
FOREGROUND
  6
CONTINUOUS
 10
2.955937
 20
33.480266
  0
VERTEX
  8
FOREGROUND
  6
CONTINUOUS
 10
2.957410
 20
33.472517
  0
VERTEX
  8
FOREGROUND
  6
CONTINUOUS
 10
2.961572
 20
33.466582
  0
VERTEX
  8
FOREGROUND
  6
CONTINUOUS
 10
2.968036
 20
33.464214
  0
VERTEX
  8
FOREGROUND
  6
CONTINUOUS
 10
2.970550
 20
33.464501
  0
VERTEX
  8
FOREGROUND
  6
CONTINUOUS
 10
2.973252
 20
33.465402
  0
VERTEX
  8
FOREGROUND
  6
CONTINUOUS
 10
2.976127
 20
33.466976
  0
VERTEX
  8
FOREGROUND
  6
CONTINUOUS
 10
3.216314
 20
33.593534
  0
VERTEX
  8
FOREGROUND
  6
CONTINUOUS
 10
3.494292
 20
33.682692
  0
VERTEX
  8
FOREGROUND
  6
CONTINUOUS
 10
3.786204
 20
33.716418
  0
VERTEX
  8
FOREGROUND
  6
CONTINUOUS
 10
3.871586
 20
33.713137
  0
VERTEX
  8
FOREGROUND
  6
CONTINUOUS
 10
3.955488
 20
33.702984
  0
VERTEX
  8
FOREGROUND
  6
CONTINUOUS
 10
4.037294
 20
33.685496
  0
VERTEX
  8
FOREGROUND
  6
CONTINUOUS
 10
4.148111
 20
33.649964
  0
VERTEX
  8
FOREGROUND
  6
CONTINUOUS
 10
4.250641
 20
33.607397
  0
VERTEX
  8
FOREGROUND
  6
CONTINUOUS
 10
4.348114
 20
33.561750
  0
VERTEX
  8
FOREGROUND
  6
CONTINUOUS
 10
4.454721
 20
33.512092
  0
VERTEX
  8
FOREGROUND
  6
CONTINUOUS
 10
4.563527
 20
33.468987
  0
VERTEX
  8
FOREGROUND
  6
CONTINUOUS
 10
4.679000
 20
33.437907
  0
VERTEX
  8
FOREGROUND
  6
CONTINUOUS
 10
4.525704
 20
33.198426
  0
VERTEX
  8
FOREGROUND
  6
CONTINUOUS
 10
4.272297
 20
33.029779
  0
VERTEX
  8
FOREGROUND
  6
CONTINUOUS
 10
3.916161
 20
32.923686
  0
VERTEX
  8
FOREGROUND
  6
CONTINUOUS
 10
3.847018
 20
32.913224
  0
VERTEX
  8
FOREGROUND
  6
CONTINUOUS
 10
3.774640
 20
32.907201
  0
VERTEX
  8
FOREGROUND
  6
CONTINUOUS
 10
3.699512
 20
32.905271
  0
VERTEX
  8
FOREGROUND
  6
CONTINUOUS
 10
3.664355
 20
32.905657
  0
VERTEX
  8
FOREGROUND
  6
CONTINUOUS
 10
3.628770
 20
32.906794
  0
VERTEX
  8
FOREGROUND
  6
CONTINUOUS
 10
3.592805
 20
32.908650
  0
VERTEX
  8
FOREGROUND
  6
CONTINUOUS
 10
3.529143
 20
32.921384
  0
VERTEX
  8
FOREGROUND
  6
CONTINUOUS
 10
3.462588
 20
32.929662
  0
VERTEX
  8
FOREGROUND
  6
CONTINUOUS
 10
3.393586
 20
32.933709
  0
VERTEX
  8
FOREGROUND
  6
CONTINUOUS
 10
3.151209
 20
32.987800
  0
VERTEX
  8
FOREGROUND
  6
CONTINUOUS
 10
2.919509
 20
33.063721
  0
VERTEX
  8
FOREGROUND
  6
CONTINUOUS
 10
2.711837
 20
33.155235
  0
VERTEX
  8
FOREGROUND
  6
CONTINUOUS
 10
2.581663
 20
32.951060
  0
VERTEX
  8
FOREGROUND
  6
CONTINUOUS
 10
2.455494
 20
32.731293
  0
VERTEX
  8
FOREGROUND
  6
CONTINUOUS
 10
2.339427
 20
32.501682
  0
VERTEX
  8
FOREGROUND
  6
CONTINUOUS
 10
2.218487
 20
32.224848
  0
VERTEX
  8
FOREGROUND
  6
CONTINUOUS
 10
2.114128
 20
31.946010
  0
VERTEX
  8
FOREGROUND
  6
CONTINUOUS
 10
2.026313
 20
31.665094
  0
VERTEX
  8
FOREGROUND
  6
CONTINUOUS
 10
1.955004
 20
31.382021
  0
VERTEX
  8
FOREGROUND
  6
CONTINUOUS
 10
1.952000
 20
31.373000
  0
VERTEX
  8
FOREGROUND
  6
CONTINUOUS
 10
1.952000
 20
32.434523
  0
VERTEX
  8
FOREGROUND
  6
CONTINUOUS
 10
2.023412
 20
32.812013
  0
VERTEX
  8
FOREGROUND
  6
CONTINUOUS
 10
2.103500
 20
33.154308
  0
VERTEX
  8
FOREGROUND
  6
CONTINUOUS
 10
2.192265
 20
33.460962
  0
VERTEX
  8
FOREGROUND
  6
CONTINUOUS
 10
2.233643
 20
33.420867
  0
VERTEX
  8
FOREGROUND
  6
CONTINUOUS
 10
2.277692
 20
33.382777
  0
VERTEX
  8
FOREGROUND
  6
CONTINUOUS
 10
2.324410
 20
33.346691
  0
VERTEX
  8
FOREGROUND
  6
CONTINUOUS
 10
2.242987
 20
33.051619
  0
VERTEX
  8
FOREGROUND
  6
CONTINUOUS
 10
2.168906
 20
32.723580
  0
VERTEX
  8
FOREGROUND
  6
CONTINUOUS
 10
2.102166
 20
32.362352
  0
VERTEX
  8
FOREGROUND
  6
CONTINUOUS
 10
2.131756
 20
32.431549
  0
VERTEX
  8
FOREGROUND
  6
CONTINUOUS
 10
2.162458
 20
32.500748
  0
VERTEX
  8
FOREGROUND
  6
CONTINUOUS
 10
2.194267
 20
32.569844
  0
VERTEX
  8
FOREGROUND
  6
CONTINUOUS
 10
2.322375
 20
32.823961
  0
VERTEX
  8
FOREGROUND
  6
CONTINUOUS
 10
2.460710
 20
33.064610
  0
VERTEX
  8
FOREGROUND
  6
CONTINUOUS
 10
2.605720
 20
33.288553
  0
VERTEX
  8
FOREGROUND
  6
CONTINUOUS
 10
2.587765
 20
33.301342
  0
VERTEX
  8
FOREGROUND
  6
CONTINUOUS
 10
2.568252
 20
33.313463
  0
VERTEX
  8
FOREGROUND
  6
CONTINUOUS
 10
2.553663
 20
33.321631
  0
VERTEX
  8
FOREGROUND
  6
CONTINUOUS
 10
2.296695
 20
33.498490
  0
VERTEX
  8
FOREGROUND
  6
CONTINUOUS
 10
2.098709
 20
33.744458
  0
VERTEX
  8
FOREGROUND
  6
CONTINUOUS
 10
1.990042
 20
34.056377
  0
VERTEX
  8
FOREGROUND
  6
CONTINUOUS
 10
1.970466
 20
34.210065
  0
VERTEX
  8
FOREGROUND
  6
CONTINUOUS
 10
1.959454
 20
34.362433
  0
VERTEX
  8
FOREGROUND
  6
CONTINUOUS
 10
1.956005
 20
34.513464
  0
VERTEX
  8
FOREGROUND
  6
CONTINUOUS
 10
1.973654
 20
34.862330
  0
VERTEX
  8
FOREGROUND
  6
CONTINUOUS
 10
2.021113
 20
35.206741
  0
VERTEX
  8
FOREGROUND
  6
CONTINUOUS
 10
2.090152
 20
35.548925
  0
VERTEX
  8
FOREGROUND
  6
CONTINUOUS
 10
2.170961
 20
35.483527
  0
VERTEX
  8
FOREGROUND
  6
CONTINUOUS
 10
2.255075
 20
35.409131
  0
SEQEND
  8
0
  0
POLYLINE
  8
FOREGROUND
  6
CONTINUOUS
 66
     1
 40
0.042000
 41
0.042000
 70
     1
  0
VERTEX
  8
FOREGROUND
  6
CONTINUOUS
 10
2.353000
 20
37.306999
  0
VERTEX
  8
FOREGROUND
  6
CONTINUOUS
 10
2.220593
 20
37.338148
  0
VERTEX
  8
FOREGROUND
  6
CONTINUOUS
 10
2.117074
 20
37.394851
  0
VERTEX
  8
FOREGROUND
  6
CONTINUOUS
 10
2.024000
 20
37.481999
  0
VERTEX
  8
FOREGROUND
  6
CONTINUOUS
 10
1.939593
 20
37.699851
  0
VERTEX
  8
FOREGROUND
  6
CONTINUOUS
 10
1.951407
 20
37.962148
  0
VERTEX
  8
FOREGROUND
  6
CONTINUOUS
 10
2.031000
 20
38.155999
  0
VERTEX
  8
FOREGROUND
  6
CONTINUOUS
 10
2.129444
 20
38.248888
  0
VERTEX
  8
FOREGROUND
  6
CONTINUOUS
 10
2.239889
 20
38.305111
  0
VERTEX
  8
FOREGROUND
  6
CONTINUOUS
 10
2.367000
 20
38.323999
  0
VERTEX
  8
FOREGROUND
  6
CONTINUOUS
 10
2.385704
 20
38.323666
  0
VERTEX
  8
FOREGROUND
  6
CONTINUOUS
 10
2.403963
 20
38.322666
  0
VERTEX
  8
FOREGROUND
  6
CONTINUOUS
 10
2.422000
 20
38.320999
  0
VERTEX
  8
FOREGROUND
  6
CONTINUOUS
 10
2.429630
 20
38.343036
  0
VERTEX
  8
FOREGROUND
  6
CONTINUOUS
 10
2.438370
 20
38.365296
  0
VERTEX
  8
FOREGROUND
  6
CONTINUOUS
 10
2.448000
 20
38.387999
  0
VERTEX
  8
FOREGROUND
  6
CONTINUOUS
 10
2.453000
 20
38.397999
  0
VERTEX
  8
FOREGROUND
  6
CONTINUOUS
 10
2.458000
 20
38.407999
  0
VERTEX
  8
FOREGROUND
  6
CONTINUOUS
 10
2.463000
 20
38.417999
  0
VERTEX
  8
FOREGROUND
  6
CONTINUOUS
 10
2.430741
 20
38.424370
  0
VERTEX
  8
FOREGROUND
  6
CONTINUOUS
 10
2.398259
 20
38.429629
  0
VERTEX
  8
FOREGROUND
  6
CONTINUOUS
 10
2.366000
 20
38.433999
  0
VERTEX
  8
FOREGROUND
  6
CONTINUOUS
 10
2.195259
 20
38.552259
  0
VERTEX
  8
FOREGROUND
  6
CONTINUOUS
 10
2.058074
 20
38.710740
  0
VERTEX
  8
FOREGROUND
  6
CONTINUOUS
 10
1.974000
 20
38.896999
  0
VERTEX
  8
FOREGROUND
  6
CONTINUOUS
 10
1.953815
 20
38.989888
  0
VERTEX
  8
FOREGROUND
  6
CONTINUOUS
 10
1.942518
 20
39.079444
  0
VERTEX
  8
FOREGROUND
  6
CONTINUOUS
 10
1.939000
 20
39.166999
  0
VERTEX
  8
FOREGROUND
  6
CONTINUOUS
 10
1.946185
 20
39.301333
  0
VERTEX
  8
FOREGROUND
  6
CONTINUOUS
 10
1.964481
 20
39.434999
  0
VERTEX
  8
FOREGROUND
  6
CONTINUOUS
 10
1.989000
 20
39.571999
  0
VERTEX
  8
FOREGROUND
  6
CONTINUOUS
 10
2.001778
 20
39.717481
  0
VERTEX
  8
FOREGROUND
  6
CONTINUOUS
 10
1.986556
 20
39.861851
  0
VERTEX
  8
FOREGROUND
  6
CONTINUOUS
 10
1.944000
 20
40.001999
  0
VERTEX
  8
FOREGROUND
  6
CONTINUOUS
 10
2.001296
 20
40.052333
  0
VERTEX
  8
FOREGROUND
  6
CONTINUOUS
 10
2.103704
 20
40.080666
  0
VERTEX
  8
FOREGROUND
  6
CONTINUOUS
 10
2.213000
 20
40.088999
  0
VERTEX
  8
FOREGROUND
  6
CONTINUOUS
 10
2.379444
 20
40.059259
  0
VERTEX
  8
FOREGROUND
  6
CONTINUOUS
 10
2.530556
 20
39.976407
  0
VERTEX
  8
FOREGROUND
  6
CONTINUOUS
 10
2.663000
 20
39.849999
  0
VERTEX
  8
FOREGROUND
  6
CONTINUOUS
 10
2.741407
 20
39.746481
  0
VERTEX
  8
FOREGROUND
  6
CONTINUOUS
 10
2.808259
 20
39.638518
  0
VERTEX
  8
FOREGROUND
  6
CONTINUOUS
 10
2.866000
 20
39.526999
  0
VERTEX
  8
FOREGROUND
  6
CONTINUOUS
 10
2.919296
 20
39.535666
  0
VERTEX
  8
FOREGROUND
  6
CONTINUOUS
 10
2.973037
 20
39.541666
  0
VERTEX
  8
FOREGROUND
  6
CONTINUOUS
 10
3.027000
 20
39.544999
  0
VERTEX
  8
FOREGROUND
  6
CONTINUOUS
 10
3.024593
 20
39.570296
  0
VERTEX
  8
FOREGROUND
  6
CONTINUOUS
 10
3.023074
 20
39.596036
  0
VERTEX
  8
FOREGROUND
  6
CONTINUOUS
 10
3.022000
 20
39.621999
  0
VERTEX
  8
FOREGROUND
  6
CONTINUOUS
 10
3.021000
 20
39.648999
  0
VERTEX
  8
FOREGROUND
  6
CONTINUOUS
 10
3.102926
 20
39.974814
  0
VERTEX
  8
FOREGROUND
  6
CONTINUOUS
 10
3.325741
 20
40.219518
  0
VERTEX
  8
FOREGROUND
  6
CONTINUOUS
 10
3.655000
 20
40.315999
  0
VERTEX
  8
FOREGROUND
  6
CONTINUOUS
 10
3.684333
 20
40.315333
  0
VERTEX
  8
FOREGROUND
  6
CONTINUOUS
 10
3.714333
 20
40.313333
  0
VERTEX
  8
FOREGROUND
  6
CONTINUOUS
 10
3.745000
 20
40.309999
  0
VERTEX
  8
FOREGROUND
  6
CONTINUOUS
 10
3.965778
 20
40.219407
  0
VERTEX
  8
FOREGROUND
  6
CONTINUOUS
 10
4.123889
 20
40.037925
  0
VERTEX
  8
FOREGROUND
  6
CONTINUOUS
 10
4.198000
 20
39.801999
  0
VERTEX
  8
FOREGROUND
  6
CONTINUOUS
 10
4.199926
 20
39.774925
  0
VERTEX
  8
FOREGROUND
  6
CONTINUOUS
 10
4.201407
 20
39.747407
  0
VERTEX
  8
FOREGROUND
  6
CONTINUOUS
 10
4.202000
 20
39.718999
  0
VERTEX
  8
FOREGROUND
  6
CONTINUOUS
 10
4.196444
 20
39.632518
  0
VERTEX
  8
FOREGROUND
  6
CONTINUOUS
 10
4.177555
 20
39.548481
  0
VERTEX
  8
FOREGROUND
  6
CONTINUOUS
 10
4.142000
 20
39.471999
  0
VERTEX
  8
FOREGROUND
  6
CONTINUOUS
 10
4.075889
 20
39.522296
  0
VERTEX
  8
FOREGROUND
  6
CONTINUOUS
 10
3.995111
 20
39.557036
  0
VERTEX
  8
FOREGROUND
  6
CONTINUOUS
 10
3.911000
 20
39.569999
  0
VERTEX
  8
FOREGROUND
  6
CONTINUOUS
 10
3.895333
 20
39.569592
  0
VERTEX
  8
FOREGROUND
  6
CONTINUOUS
 10
3.880333
 20
39.568073
  0
VERTEX
  8
FOREGROUND
  6
CONTINUOUS
 10
3.866000
 20
39.564999
  0
VERTEX
  8
FOREGROUND
  6
CONTINUOUS
 10
3.749926
 20
39.501666
  0
VERTEX
  8
FOREGROUND
  6
CONTINUOUS
 10
3.674741
 20
39.391666
  0
VERTEX
  8
FOREGROUND
  6
CONTINUOUS
 10
3.642000
 20
39.264999
  0
VERTEX
  8
FOREGROUND
  6
CONTINUOUS
 10
3.638926
 20
39.230740
  0
VERTEX
  8
FOREGROUND
  6
CONTINUOUS
 10
3.637407
 20
39.196259
  0
VERTEX
  8
FOREGROUND
  6
CONTINUOUS
 10
3.637000
 20
39.161999
  0
VERTEX
  8
FOREGROUND
  6
CONTINUOUS
 10
3.646481
 20
38.994925
  0
VERTEX
  8
FOREGROUND
  6
CONTINUOUS
 10
3.670185
 20
38.823407
  0
VERTEX
  8
FOREGROUND
  6
CONTINUOUS
 10
3.701000
 20
38.646999
  0
VERTEX
  8
FOREGROUND
  6
CONTINUOUS
 10
3.725555
 20
38.513962
  0
VERTEX
  8
FOREGROUND
  6
CONTINUOUS
 10
3.747444
 20
38.378703
  0
VERTEX
  8
FOREGROUND
  6
CONTINUOUS
 10
3.764000
 20
38.240999
  0
VERTEX
  8
FOREGROUND
  6
CONTINUOUS
 10
3.771370
 20
38.149222
  0
VERTEX
  8
FOREGROUND
  6
CONTINUOUS
 10
3.775630
 20
38.061444
  0
VERTEX
  8
FOREGROUND
  6
CONTINUOUS
 10
3.777000
 20
37.976999
  0
VERTEX
  8
FOREGROUND
  6
CONTINUOUS
 10
3.752370
 20
37.654444
  0
VERTEX
  8
FOREGROUND
  6
CONTINUOUS
 10
3.685296
 20
37.397222
  0
VERTEX
  8
FOREGROUND
  6
CONTINUOUS
 10
3.586000
 20
37.199999
  0
VERTEX
  8
FOREGROUND
  6
CONTINUOUS
 10
3.561333
 20
37.252962
  0
VERTEX
  8
FOREGROUND
  6
CONTINUOUS
 10
3.529333
 20
37.303703
  0
VERTEX
  8
FOREGROUND
  6
CONTINUOUS
 10
3.490000
 20
37.351999
  0
VERTEX
  8
FOREGROUND
  6
CONTINUOUS
 10
3.437333
 20
37.403185
  0
VERTEX
  8
FOREGROUND
  6
CONTINUOUS
 10
3.363333
 20
37.464148
  0
VERTEX
  8
FOREGROUND
  6
CONTINUOUS
 10
3.268000
 20
37.533999
  0
VERTEX
  8
FOREGROUND
  6
CONTINUOUS
 10
3.212556
 20
37.572962
  0
VERTEX
  8
FOREGROUND
  6
CONTINUOUS
 10
3.167778
 20
37.605703
  0
VERTEX
  8
FOREGROUND
  6
CONTINUOUS
 10
3.133000
 20
37.631999
  0
VERTEX
  8
FOREGROUND
  6
CONTINUOUS
 10
3.121704
 20
37.647740
  0
VERTEX
  8
FOREGROUND
  6
CONTINUOUS
 10
3.103963
 20
37.677259
  0
VERTEX
  8
FOREGROUND
  6
CONTINUOUS
 10
3.080000
 20
37.720999
  0
VERTEX
  8
FOREGROUND
  6
CONTINUOUS
 10
3.062926
 20
37.750925
  0
VERTEX
  8
FOREGROUND
  6
CONTINUOUS
 10
3.049407
 20
37.774407
  0
VERTEX
  8
FOREGROUND
  6
CONTINUOUS
 10
3.039000
 20
37.790999
  0
VERTEX
  8
FOREGROUND
  6
CONTINUOUS
 10
3.029000
 20
37.803740
  0
VERTEX
  8
FOREGROUND
  6
CONTINUOUS
 10
3.017000
 20
37.814259
  0
VERTEX
  8
FOREGROUND
  6
CONTINUOUS
 10
3.003000
 20
37.822999
  0
VERTEX
  8
FOREGROUND
  6
CONTINUOUS
 10
2.988370
 20
37.830370
  0
VERTEX
  8
FOREGROUND
  6
CONTINUOUS
 10
2.972630
 20
37.834629
  0
VERTEX
  8
FOREGROUND
  6
CONTINUOUS
 10
2.956000
 20
37.835999
  0
VERTEX
  8
FOREGROUND
  6
CONTINUOUS
 10
2.936630
 20
37.833777
  0
VERTEX
  8
FOREGROUND
  6
CONTINUOUS
 10
2.918370
 20
37.827555
  0
VERTEX
  8
FOREGROUND
  6
CONTINUOUS
 10
2.901000
 20
37.817999
  0
VERTEX
  8
FOREGROUND
  6
CONTINUOUS
 10
2.885630
 20
37.805666
  0
VERTEX
  8
FOREGROUND
  6
CONTINUOUS
 10
2.873370
 20
37.790666
  0
VERTEX
  8
FOREGROUND
  6
CONTINUOUS
 10
2.864000
 20
37.772999
  0
VERTEX
  8
FOREGROUND
  6
CONTINUOUS
 10
2.820037
 20
37.678629
  0
VERTEX
  8
FOREGROUND
  6
CONTINUOUS
 10
2.780296
 20
37.615370
  0
VERTEX
  8
FOREGROUND
  6
CONTINUOUS
 10
2.745000
 20
37.582999
  0
VERTEX
  8
FOREGROUND
  6
CONTINUOUS
 10
2.730296
 20
37.576296
  0
VERTEX
  8
FOREGROUND
  6
CONTINUOUS
 10
2.712037
 20
37.568036
  0
VERTEX
  8
FOREGROUND
  6
CONTINUOUS
 10
2.690000
 20
37.557999
  0
VERTEX
  8
FOREGROUND
  6
CONTINUOUS
 10
2.650296
 20
37.574814
  0
VERTEX
  8
FOREGROUND
  6
CONTINUOUS
 10
2.611037
 20
37.587185
  0
VERTEX
  8
FOREGROUND
  6
CONTINUOUS
 10
2.572000
 20
37.591999
  0
VERTEX
  8
FOREGROUND
  6
CONTINUOUS
 10
2.467111
 20
37.558481
  0
VERTEX
  8
FOREGROUND
  6
CONTINUOUS
 10
2.406222
 20
37.473185
  0
VERTEX
  8
FOREGROUND
  6
CONTINUOUS
 10
2.386000
 20
37.358999
  0
VERTEX
  8
FOREGROUND
  6
CONTINUOUS
 10
2.374333
 20
37.341962
  0
VERTEX
  8
FOREGROUND
  6
CONTINUOUS
 10
2.363333
 20
37.324703
  0
SEQEND
  8
0
  0
POLYLINE
  8
FOREGROUND
  6
CONTINUOUS
 66
     1
 40
0.042000
 41
0.042000
 70
     1
  0
VERTEX
  8
FOREGROUND
  6
CONTINUOUS
 10
17.647000
 20
37.306999
  0
VERTEX
  8
FOREGROUND
  6
CONTINUOUS
 10
17.636666
 20
37.324703
  0
VERTEX
  8
FOREGROUND
  6
CONTINUOUS
 10
17.625666
 20
37.341962
  0
VERTEX
  8
FOREGROUND
  6
CONTINUOUS
 10
17.614000
 20
37.358999
  0
VERTEX
  8
FOREGROUND
  6
CONTINUOUS
 10
17.593778
 20
37.473185
  0
VERTEX
  8
FOREGROUND
  6
CONTINUOUS
 10
17.532889
 20
37.558481
  0
VERTEX
  8
FOREGROUND
  6
CONTINUOUS
 10
17.428000
 20
37.591999
  0
VERTEX
  8
FOREGROUND
  6
CONTINUOUS
 10
17.388963
 20
37.587185
  0
VERTEX
  8
FOREGROUND
  6
CONTINUOUS
 10
17.349703
 20
37.574814
  0
VERTEX
  8
FOREGROUND
  6
CONTINUOUS
 10
17.310000
 20
37.557999
  0
VERTEX
  8
FOREGROUND
  6
CONTINUOUS
 10
17.287963
 20
37.568036
  0
VERTEX
  8
FOREGROUND
  6
CONTINUOUS
 10
17.269703
 20
37.576296
  0
VERTEX
  8
FOREGROUND
  6
CONTINUOUS
 10
17.255000
 20
37.582999
  0
VERTEX
  8
FOREGROUND
  6
CONTINUOUS
 10
17.219703
 20
37.615370
  0
VERTEX
  8
FOREGROUND
  6
CONTINUOUS
 10
17.179963
 20
37.678629
  0
VERTEX
  8
FOREGROUND
  6
CONTINUOUS
 10
17.136000
 20
37.772999
  0
VERTEX
  8
FOREGROUND
  6
CONTINUOUS
 10
17.126629
 20
37.790666
  0
VERTEX
  8
FOREGROUND
  6
CONTINUOUS
 10
17.114370
 20
37.805666
  0
VERTEX
  8
FOREGROUND
  6
CONTINUOUS
 10
17.099000
 20
37.817999
  0
VERTEX
  8
FOREGROUND
  6
CONTINUOUS
 10
17.081629
 20
37.827555
  0
VERTEX
  8
FOREGROUND
  6
CONTINUOUS
 10
17.063370
 20
37.833777
  0
VERTEX
  8
FOREGROUND
  6
CONTINUOUS
 10
17.044000
 20
37.835999
  0
VERTEX
  8
FOREGROUND
  6
CONTINUOUS
 10
17.027370
 20
37.834629
  0
VERTEX
  8
FOREGROUND
  6
CONTINUOUS
 10
17.011629
 20
37.830370
  0
VERTEX
  8
FOREGROUND
  6
CONTINUOUS
 10
16.997000
 20
37.822999
  0
VERTEX
  8
FOREGROUND
  6
CONTINUOUS
 10
16.983000
 20
37.814259
  0
VERTEX
  8
FOREGROUND
  6
CONTINUOUS
 10
16.971000
 20
37.803740
  0
VERTEX
  8
FOREGROUND
  6
CONTINUOUS
 10
16.961000
 20
37.790999
  0
VERTEX
  8
FOREGROUND
  6
CONTINUOUS
 10
16.950592
 20
37.774407
  0
VERTEX
  8
FOREGROUND
  6
CONTINUOUS
 10
16.937074
 20
37.750925
  0
VERTEX
  8
FOREGROUND
  6
CONTINUOUS
 10
16.920000
 20
37.720999
  0
VERTEX
  8
FOREGROUND
  6
CONTINUOUS
 10
16.896037
 20
37.677259
  0
VERTEX
  8
FOREGROUND
  6
CONTINUOUS
 10
16.878296
 20
37.647740
  0
VERTEX
  8
FOREGROUND
  6
CONTINUOUS
 10
16.867000
 20
37.631999
  0
VERTEX
  8
FOREGROUND
  6
CONTINUOUS
 10
16.832222
 20
37.605703
  0
VERTEX
  8
FOREGROUND
  6
CONTINUOUS
 10
16.787444
 20
37.572962
  0
VERTEX
  8
FOREGROUND
  6
CONTINUOUS
 10
16.732000
 20
37.533999
  0
VERTEX
  8
FOREGROUND
  6
CONTINUOUS
 10
16.636666
 20
37.464148
  0
VERTEX
  8
FOREGROUND
  6
CONTINUOUS
 10
16.562666
 20
37.403185
  0
VERTEX
  8
FOREGROUND
  6
CONTINUOUS
 10
16.510000
 20
37.351999
  0
VERTEX
  8
FOREGROUND
  6
CONTINUOUS
 10
16.470666
 20
37.303703
  0
VERTEX
  8
FOREGROUND
  6
CONTINUOUS
 10
16.438666
 20
37.252962
  0
VERTEX
  8
FOREGROUND
  6
CONTINUOUS
 10
16.414000
 20
37.199999
  0
VERTEX
  8
FOREGROUND
  6
CONTINUOUS
 10
16.314703
 20
37.397222
  0
VERTEX
  8
FOREGROUND
  6
CONTINUOUS
 10
16.247629
 20
37.654444
  0
VERTEX
  8
FOREGROUND
  6
CONTINUOUS
 10
16.223000
 20
37.976999
  0
VERTEX
  8
FOREGROUND
  6
CONTINUOUS
 10
16.224370
 20
38.061444
  0
VERTEX
  8
FOREGROUND
  6
CONTINUOUS
 10
16.228629
 20
38.149222
  0
VERTEX
  8
FOREGROUND
  6
CONTINUOUS
 10
16.236000
 20
38.240999
  0
VERTEX
  8
FOREGROUND
  6
CONTINUOUS
 10
16.252555
 20
38.378703
  0
VERTEX
  8
FOREGROUND
  6
CONTINUOUS
 10
16.274444
 20
38.513962
  0
VERTEX
  8
FOREGROUND
  6
CONTINUOUS
 10
16.299000
 20
38.646999
  0
VERTEX
  8
FOREGROUND
  6
CONTINUOUS
 10
16.329815
 20
38.823407
  0
VERTEX
  8
FOREGROUND
  6
CONTINUOUS
 10
16.353518
 20
38.994925
  0
VERTEX
  8
FOREGROUND
  6
CONTINUOUS
 10
16.363000
 20
39.161999
  0
VERTEX
  8
FOREGROUND
  6
CONTINUOUS
 10
16.362592
 20
39.196259
  0
VERTEX
  8
FOREGROUND
  6
CONTINUOUS
 10
16.361074
 20
39.230740
  0
VERTEX
  8
FOREGROUND
  6
CONTINUOUS
 10
16.358000
 20
39.264999
  0
VERTEX
  8
FOREGROUND
  6
CONTINUOUS
 10
16.325259
 20
39.391666
  0
VERTEX
  8
FOREGROUND
  6
CONTINUOUS
 10
16.250074
 20
39.501666
  0
VERTEX
  8
FOREGROUND
  6
CONTINUOUS
 10
16.134000
 20
39.564999
  0
VERTEX
  8
FOREGROUND
  6
CONTINUOUS
 10
16.119666
 20
39.568073
  0
VERTEX
  8
FOREGROUND
  6
CONTINUOUS
 10
16.104666
 20
39.569592
  0
VERTEX
  8
FOREGROUND
  6
CONTINUOUS
 10
16.089000
 20
39.569999
  0
VERTEX
  8
FOREGROUND
  6
CONTINUOUS
 10
16.004889
 20
39.557036
  0
VERTEX
  8
FOREGROUND
  6
CONTINUOUS
 10
15.924111
 20
39.522296
  0
VERTEX
  8
FOREGROUND
  6
CONTINUOUS
 10
15.858000
 20
39.471999
  0
VERTEX
  8
FOREGROUND
  6
CONTINUOUS
 10
15.822444
 20
39.548481
  0
VERTEX
  8
FOREGROUND
  6
CONTINUOUS
 10
15.803555
 20
39.632518
  0
VERTEX
  8
FOREGROUND
  6
CONTINUOUS
 10
15.798000
 20
39.718999
  0
VERTEX
  8
FOREGROUND
  6
CONTINUOUS
 10
15.798592
 20
39.747407
  0
VERTEX
  8
FOREGROUND
  6
CONTINUOUS
 10
15.800074
 20
39.774925
  0
VERTEX
  8
FOREGROUND
  6
CONTINUOUS
 10
15.802000
 20
39.801999
  0
VERTEX
  8
FOREGROUND
  6
CONTINUOUS
 10
15.876111
 20
40.037925
  0
VERTEX
  8
FOREGROUND
  6
CONTINUOUS
 10
16.034222
 20
40.219407
  0
VERTEX
  8
FOREGROUND
  6
CONTINUOUS
 10
16.255000
 20
40.309999
  0
VERTEX
  8
FOREGROUND
  6
CONTINUOUS
 10
16.285666
 20
40.313333
  0
VERTEX
  8
FOREGROUND
  6
CONTINUOUS
 10
16.315666
 20
40.315333
  0
VERTEX
  8
FOREGROUND
  6
CONTINUOUS
 10
16.345000
 20
40.315999
  0
VERTEX
  8
FOREGROUND
  6
CONTINUOUS
 10
16.674259
 20
40.219518
  0
VERTEX
  8
FOREGROUND
  6
CONTINUOUS
 10
16.897074
 20
39.974814
  0
VERTEX
  8
FOREGROUND
  6
CONTINUOUS
 10
16.979000
 20
39.648999
  0
VERTEX
  8
FOREGROUND
  6
CONTINUOUS
 10
16.978000
 20
39.621999
  0
VERTEX
  8
FOREGROUND
  6
CONTINUOUS
 10
16.976926
 20
39.596036
  0
VERTEX
  8
FOREGROUND
  6
CONTINUOUS
 10
16.975407
 20
39.570296
  0
VERTEX
  8
FOREGROUND
  6
CONTINUOUS
 10
16.973000
 20
39.544999
  0
VERTEX
  8
FOREGROUND
  6
CONTINUOUS
 10
17.026963
 20
39.541666
  0
VERTEX
  8
FOREGROUND
  6
CONTINUOUS
 10
17.080703
 20
39.535666
  0
VERTEX
  8
FOREGROUND
  6
CONTINUOUS
 10
17.134000
 20
39.526999
  0
VERTEX
  8
FOREGROUND
  6
CONTINUOUS
 10
17.191740
 20
39.638518
  0
VERTEX
  8
FOREGROUND
  6
CONTINUOUS
 10
17.258592
 20
39.746481
  0
VERTEX
  8
FOREGROUND
  6
CONTINUOUS
 10
17.337000
 20
39.849999
  0
VERTEX
  8
FOREGROUND
  6
CONTINUOUS
 10
17.469444
 20
39.976407
  0
VERTEX
  8
FOREGROUND
  6
CONTINUOUS
 10
17.620555
 20
40.059259
  0
VERTEX
  8
FOREGROUND
  6
CONTINUOUS
 10
17.787000
 20
40.088999
  0
VERTEX
  8
FOREGROUND
  6
CONTINUOUS
 10
17.896296
 20
40.080666
  0
VERTEX
  8
FOREGROUND
  6
CONTINUOUS
 10
17.998703
 20
40.052333
  0
VERTEX
  8
FOREGROUND
  6
CONTINUOUS
 10
18.056000
 20
40.001999
  0
VERTEX
  8
FOREGROUND
  6
CONTINUOUS
 10
18.013444
 20
39.861851
  0
VERTEX
  8
FOREGROUND
  6
CONTINUOUS
 10
17.998222
 20
39.717481
  0
VERTEX
  8
FOREGROUND
  6
CONTINUOUS
 10
18.011000
 20
39.571999
  0
VERTEX
  8
FOREGROUND
  6
CONTINUOUS
 10
18.035518
 20
39.434999
  0
VERTEX
  8
FOREGROUND
  6
CONTINUOUS
 10
18.053815
 20
39.301333
  0
VERTEX
  8
FOREGROUND
  6
CONTINUOUS
 10
18.061000
 20
39.166999
  0
VERTEX
  8
FOREGROUND
  6
CONTINUOUS
 10
18.057481
 20
39.079444
  0
VERTEX
  8
FOREGROUND
  6
CONTINUOUS
 10
18.046185
 20
38.989888
  0
VERTEX
  8
FOREGROUND
  6
CONTINUOUS
 10
18.026000
 20
38.896999
  0
VERTEX
  8
FOREGROUND
  6
CONTINUOUS
 10
17.941926
 20
38.710740
  0
VERTEX
  8
FOREGROUND
  6
CONTINUOUS
 10
17.804740
 20
38.552259
  0
VERTEX
  8
FOREGROUND
  6
CONTINUOUS
 10
17.634000
 20
38.433999
  0
VERTEX
  8
FOREGROUND
  6
CONTINUOUS
 10
17.601740
 20
38.429629
  0
VERTEX
  8
FOREGROUND
  6
CONTINUOUS
 10
17.569259
 20
38.424370
  0
VERTEX
  8
FOREGROUND
  6
CONTINUOUS
 10
17.537000
 20
38.417999
  0
VERTEX
  8
FOREGROUND
  6
CONTINUOUS
 10
17.542000
 20
38.407999
  0
VERTEX
  8
FOREGROUND
  6
CONTINUOUS
 10
17.547000
 20
38.397999
  0
VERTEX
  8
FOREGROUND
  6
CONTINUOUS
 10
17.552000
 20
38.387999
  0
VERTEX
  8
FOREGROUND
  6
CONTINUOUS
 10
17.561629
 20
38.365296
  0
VERTEX
  8
FOREGROUND
  6
CONTINUOUS
 10
17.570370
 20
38.343036
  0
VERTEX
  8
FOREGROUND
  6
CONTINUOUS
 10
17.578000
 20
38.320999
  0
VERTEX
  8
FOREGROUND
  6
CONTINUOUS
 10
17.596037
 20
38.322666
  0
VERTEX
  8
FOREGROUND
  6
CONTINUOUS
 10
17.614296
 20
38.323666
  0
VERTEX
  8
FOREGROUND
  6
CONTINUOUS
 10
17.633000
 20
38.323999
  0
VERTEX
  8
FOREGROUND
  6
CONTINUOUS
 10
17.760111
 20
38.305111
  0
VERTEX
  8
FOREGROUND
  6
CONTINUOUS
 10
17.870555
 20
38.248888
  0
VERTEX
  8
FOREGROUND
  6
CONTINUOUS
 10
17.969000
 20
38.155999
  0
VERTEX
  8
FOREGROUND
  6
CONTINUOUS
 10
18.048592
 20
37.962148
  0
VERTEX
  8
FOREGROUND
  6
CONTINUOUS
 10
18.060407
 20
37.699851
  0
VERTEX
  8
FOREGROUND
  6
CONTINUOUS
 10
17.976000
 20
37.481999
  0
VERTEX
  8
FOREGROUND
  6
CONTINUOUS
 10
17.882926
 20
37.394851
  0
VERTEX
  8
FOREGROUND
  6
CONTINUOUS
 10
17.779407
 20
37.338148
  0
SEQEND
  8
0
  0
POLYLINE
  8
FOREGROUND
  6
CONTINUOUS
 66
     1
 40
0.042000
 41
0.042000
 70
     1
  0
VERTEX
  8
FOREGROUND
  6
CONTINUOUS
 10
3.574785
 20
32.809628
  0
VERTEX
  8
FOREGROUND
  6
CONTINUOUS
 10
3.676893
 20
32.777361
  0
VERTEX
  8
FOREGROUND
  6
CONTINUOUS
 10
3.773662
 20
32.729948
  0
VERTEX
  8
FOREGROUND
  6
CONTINUOUS
 10
3.863102
 20
32.666287
  0
VERTEX
  8
FOREGROUND
  6
CONTINUOUS
 10
3.998338
 20
32.508185
  0
VERTEX
  8
FOREGROUND
  6
CONTINUOUS
 10
4.077886
 20
32.320840
  0
VERTEX
  8
FOREGROUND
  6
CONTINUOUS
 10
4.103919
 20
32.118115
  0
VERTEX
  8
FOREGROUND
  6
CONTINUOUS
 10
4.098219
 20
32.020896
  0
VERTEX
  8
FOREGROUND
  6
CONTINUOUS
 10
4.081274
 20
31.924803
  0
VERTEX
  8
FOREGROUND
  6
CONTINUOUS
 10
4.053311
 20
31.831303
  0
VERTEX
  8
FOREGROUND
  6
CONTINUOUS
 10
3.916786
 20
31.590850
  0
VERTEX
  8
FOREGROUND
  6
CONTINUOUS
 10
3.709679
 20
31.412653
  0
VERTEX
  8
FOREGROUND
  6
CONTINUOUS
 10
3.455894
 20
31.342973
  0
VERTEX
  8
FOREGROUND
  6
CONTINUOUS
 10
3.406653
 20
31.345572
  0
VERTEX
  8
FOREGROUND
  6
CONTINUOUS
 10
3.356804
 20
31.353556
  0
VERTEX
  8
FOREGROUND
  6
CONTINUOUS
 10
3.306490
 20
31.367200
  0
VERTEX
  8
FOREGROUND
  6
CONTINUOUS
 10
3.140145
 20
31.462214
  0
VERTEX
  8
FOREGROUND
  6
CONTINUOUS
 10
3.022635
 20
31.613717
  0
VERTEX
  8
FOREGROUND
  6
CONTINUOUS
 10
2.978101
 20
31.801226
  0
VERTEX
  8
FOREGROUND
  6
CONTINUOUS
 10
2.978542
 20
31.820156
  0
VERTEX
  8
FOREGROUND
  6
CONTINUOUS
 10
2.979879
 20
31.839209
  0
VERTEX
  8
FOREGROUND
  6
CONTINUOUS
 10
2.982133
 20
31.858367
  0
VERTEX
  8
FOREGROUND
  6
CONTINUOUS
 10
3.041678
 20
32.021648
  0
VERTEX
  8
FOREGROUND
  6
CONTINUOUS
 10
3.159949
 20
32.144135
  0
VERTEX
  8
FOREGROUND
  6
CONTINUOUS
 10
3.320505
 20
32.198175
  0
VERTEX
  8
FOREGROUND
  6
CONTINUOUS
 10
3.345996
 20
32.198944
  0
VERTEX
  8
FOREGROUND
  6
CONTINUOUS
 10
3.441999
 20
32.187457
  0
VERTEX
  8
FOREGROUND
  6
CONTINUOUS
 10
3.530811
 20
32.152857
  0
VERTEX
  8
FOREGROUND
  6
CONTINUOUS
 10
3.607821
 20
32.094929
  0
VERTEX
  8
FOREGROUND
  6
CONTINUOUS
 10
3.612355
 20
32.091361
  0
VERTEX
  8
FOREGROUND
  6
CONTINUOUS
 10
3.617169
 20
32.089312
  0
VERTEX
  8
FOREGROUND
  6
CONTINUOUS
 10
3.622175
 20
32.088656
  0
VERTEX
  8
FOREGROUND
  6
CONTINUOUS
 10
3.642322
 20
32.097440
  0
VERTEX
  8
FOREGROUND
  6
CONTINUOUS
 10
3.658521
 20
32.118466
  0
VERTEX
  8
FOREGROUND
  6
CONTINUOUS
 10
3.665166
 20
32.143751
  0
VERTEX
  8
FOREGROUND
  6
CONTINUOUS
 10
3.664311
 20
32.151650
  0
VERTEX
  8
FOREGROUND
  6
CONTINUOUS
 10
3.661614
 20
32.158860
  0
VERTEX
  8
FOREGROUND
  6
CONTINUOUS
 10
3.656875
 20
32.165096
  0
VERTEX
  8
FOREGROUND
  6
CONTINUOUS
 10
3.551789
 20
32.240620
  0
VERTEX
  8
FOREGROUND
  6
CONTINUOUS
 10
3.430772
 20
32.285616
  0
VERTEX
  8
FOREGROUND
  6
CONTINUOUS
 10
3.304086
 20
32.300518
  0
VERTEX
  8
FOREGROUND
  6
CONTINUOUS
 10
3.207343
 20
32.291415
  0
VERTEX
  8
FOREGROUND
  6
CONTINUOUS
 10
3.118393
 20
32.264247
  0
VERTEX
  8
FOREGROUND
  6
CONTINUOUS
 10
3.042199
 20
32.219225
  0
VERTEX
  8
FOREGROUND
  6
CONTINUOUS
 10
2.862888
 20
32.030830
  0
VERTEX
  8
FOREGROUND
  6
CONTINUOUS
 10
2.698379
 20
31.774345
  0
VERTEX
  8
FOREGROUND
  6
CONTINUOUS
 10
2.546654
 20
31.468440
  0
VERTEX
  8
FOREGROUND
  6
CONTINUOUS
 10
2.416057
 20
31.152373
  0
VERTEX
  8
FOREGROUND
  6
CONTINUOUS
 10
2.299645
 20
30.828020
  0
VERTEX
  8
FOREGROUND
  6
CONTINUOUS
 10
2.197175
 20
30.512870
  0
VERTEX
  8
FOREGROUND
  6
CONTINUOUS
 10
2.108402
 20
30.224411
  0
VERTEX
  8
FOREGROUND
  6
CONTINUOUS
 10
2.093155
 20
30.174365
  0
VERTEX
  8
FOREGROUND
  6
CONTINUOUS
 10
2.040915
 20
29.986496
  0
VERTEX
  8
FOREGROUND
  6
CONTINUOUS
 10
1.994789
 20
29.793916
  0
VERTEX
  8
FOREGROUND
  6
CONTINUOUS
 10
1.952000
 20
29.600000
  0
VERTEX
  8
FOREGROUND
  6
CONTINUOUS
 10
1.952000
 20
30.993311
  0
VERTEX
  8
FOREGROUND
  6
CONTINUOUS
 10
2.027511
 20
31.280191
  0
VERTEX
  8
FOREGROUND
  6
CONTINUOUS
 10
2.134283
 20
31.574606
  0
VERTEX
  8
FOREGROUND
  6
CONTINUOUS
 10
2.263868
 20
31.864411
  0
VERTEX
  8
FOREGROUND
  6
CONTINUOUS
 10
2.407812
 20
32.137461
  0
VERTEX
  8
FOREGROUND
  6
CONTINUOUS
 10
2.557666
 20
32.381611
  0
VERTEX
  8
FOREGROUND
  6
CONTINUOUS
 10
2.744254
 20
32.592416
  0
VERTEX
  8
FOREGROUND
  6
CONTINUOUS
 10
2.989603
 20
32.751893
  0
VERTEX
  8
FOREGROUND
  6
CONTINUOUS
 10
3.273454
 20
32.829676
  0
VERTEX
  8
FOREGROUND
  6
CONTINUOUS
 10
3.302454
 20
32.831961
  0
VERTEX
  8
FOREGROUND
  6
CONTINUOUS
 10
3.331264
 20
32.833441
  0
VERTEX
  8
FOREGROUND
  6
CONTINUOUS
 10
3.360113
 20
32.833967
  0
VERTEX
  8
FOREGROUND
  6
CONTINUOUS
 10
3.380571
 20
32.833685
  0
VERTEX
  8
FOREGROUND
  6
CONTINUOUS
 10
3.446273
 20
32.823662
  0
VERTEX
  8
FOREGROUND
  6
CONTINUOUS
 10
3.511085
 20
32.815642
  0
SEQEND
  8
0
  0
POLYLINE
  8
FOREGROUND
  6
CONTINUOUS
 66
     1
 40
0.042000
 41
0.042000
 70
     1
  0
VERTEX
  8
FOREGROUND
  6
CONTINUOUS
 10
16.425215
 20
32.809628
  0
VERTEX
  8
FOREGROUND
  6
CONTINUOUS
 10
16.488914
 20
32.815642
  0
VERTEX
  8
FOREGROUND
  6
CONTINUOUS
 10
16.553726
 20
32.823662
  0
VERTEX
  8
FOREGROUND
  6
CONTINUOUS
 10
16.619428
 20
32.833685
  0
VERTEX
  8
FOREGROUND
  6
CONTINUOUS
 10
16.639887
 20
32.833967
  0
VERTEX
  8
FOREGROUND
  6
CONTINUOUS
 10
16.668736
 20
32.833441
  0
VERTEX
  8
FOREGROUND
  6
CONTINUOUS
 10
16.697546
 20
32.831961
  0
VERTEX
  8
FOREGROUND
  6
CONTINUOUS
 10
16.726546
 20
32.829676
  0
VERTEX
  8
FOREGROUND
  6
CONTINUOUS
 10
17.010397
 20
32.751893
  0
VERTEX
  8
FOREGROUND
  6
CONTINUOUS
 10
17.255746
 20
32.592416
  0
VERTEX
  8
FOREGROUND
  6
CONTINUOUS
 10
17.442334
 20
32.381611
  0
VERTEX
  8
FOREGROUND
  6
CONTINUOUS
 10
17.592188
 20
32.137461
  0
VERTEX
  8
FOREGROUND
  6
CONTINUOUS
 10
17.736132
 20
31.864411
  0
VERTEX
  8
FOREGROUND
  6
CONTINUOUS
 10
17.865716
 20
31.574606
  0
VERTEX
  8
FOREGROUND
  6
CONTINUOUS
 10
17.972489
 20
31.280191
  0
VERTEX
  8
FOREGROUND
  6
CONTINUOUS
 10
18.048000
 20
30.993311
  0
VERTEX
  8
FOREGROUND
  6
CONTINUOUS
 10
18.048000
 20
29.600000
  0
VERTEX
  8
FOREGROUND
  6
CONTINUOUS
 10
18.005211
 20
29.793916
  0
VERTEX
  8
FOREGROUND
  6
CONTINUOUS
 10
17.959084
 20
29.986496
  0
VERTEX
  8
FOREGROUND
  6
CONTINUOUS
 10
17.906845
 20
30.174365
  0
VERTEX
  8
FOREGROUND
  6
CONTINUOUS
 10
17.891598
 20
30.224411
  0
VERTEX
  8
FOREGROUND
  6
CONTINUOUS
 10
17.802825
 20
30.512870
  0
VERTEX
  8
FOREGROUND
  6
CONTINUOUS
 10
17.700354
 20
30.828020
  0
VERTEX
  8
FOREGROUND
  6
CONTINUOUS
 10
17.583943
 20
31.152373
  0
VERTEX
  8
FOREGROUND
  6
CONTINUOUS
 10
17.453346
 20
31.468440
  0
VERTEX
  8
FOREGROUND
  6
CONTINUOUS
 10
17.301621
 20
31.774345
  0
VERTEX
  8
FOREGROUND
  6
CONTINUOUS
 10
17.137112
 20
32.030830
  0
VERTEX
  8
FOREGROUND
  6
CONTINUOUS
 10
16.957801
 20
32.219225
  0
VERTEX
  8
FOREGROUND
  6
CONTINUOUS
 10
16.881607
 20
32.264247
  0
VERTEX
  8
FOREGROUND
  6
CONTINUOUS
 10
16.792657
 20
32.291415
  0
VERTEX
  8
FOREGROUND
  6
CONTINUOUS
 10
16.695913
 20
32.300518
  0
VERTEX
  8
FOREGROUND
  6
CONTINUOUS
 10
16.569227
 20
32.285616
  0
VERTEX
  8
FOREGROUND
  6
CONTINUOUS
 10
16.448211
 20
32.240620
  0
VERTEX
  8
FOREGROUND
  6
CONTINUOUS
 10
16.343124
 20
32.165096
  0
VERTEX
  8
FOREGROUND
  6
CONTINUOUS
 10
16.338385
 20
32.158860
  0
VERTEX
  8
FOREGROUND
  6
CONTINUOUS
 10
16.335688
 20
32.151650
  0
VERTEX
  8
FOREGROUND
  6
CONTINUOUS
 10
16.334834
 20
32.143751
  0
VERTEX
  8
FOREGROUND
  6
CONTINUOUS
 10
16.341479
 20
32.118466
  0
VERTEX
  8
FOREGROUND
  6
CONTINUOUS
 10
16.357677
 20
32.097440
  0
VERTEX
  8
FOREGROUND
  6
CONTINUOUS
 10
16.377825
 20
32.088656
  0
VERTEX
  8
FOREGROUND
  6
CONTINUOUS
 10
16.382831
 20
32.089312
  0
VERTEX
  8
FOREGROUND
  6
CONTINUOUS
 10
16.387644
 20
32.091361
  0
VERTEX
  8
FOREGROUND
  6
CONTINUOUS
 10
16.392178
 20
32.094929
  0
VERTEX
  8
FOREGROUND
  6
CONTINUOUS
 10
16.469188
 20
32.152857
  0
VERTEX
  8
FOREGROUND
  6
CONTINUOUS
 10
16.558001
 20
32.187457
  0
VERTEX
  8
FOREGROUND
  6
CONTINUOUS
 10
16.654004
 20
32.198944
  0
VERTEX
  8
FOREGROUND
  6
CONTINUOUS
 10
16.679494
 20
32.198175
  0
VERTEX
  8
FOREGROUND
  6
CONTINUOUS
 10
16.840051
 20
32.144135
  0
VERTEX
  8
FOREGROUND
  6
CONTINUOUS
 10
16.958322
 20
32.021648
  0
VERTEX
  8
FOREGROUND
  6
CONTINUOUS
 10
17.017867
 20
31.858367
  0
VERTEX
  8
FOREGROUND
  6
CONTINUOUS
 10
17.020121
 20
31.839209
  0
VERTEX
  8
FOREGROUND
  6
CONTINUOUS
 10
17.021458
 20
31.820156
  0
VERTEX
  8
FOREGROUND
  6
CONTINUOUS
 10
17.021899
 20
31.801226
  0
VERTEX
  8
FOREGROUND
  6
CONTINUOUS
 10
16.977365
 20
31.613717
  0
VERTEX
  8
FOREGROUND
  6
CONTINUOUS
 10
16.859855
 20
31.462214
  0
VERTEX
  8
FOREGROUND
  6
CONTINUOUS
 10
16.693510
 20
31.367200
  0
VERTEX
  8
FOREGROUND
  6
CONTINUOUS
 10
16.643196
 20
31.353556
  0
VERTEX
  8
FOREGROUND
  6
CONTINUOUS
 10
16.593347
 20
31.345572
  0
VERTEX
  8
FOREGROUND
  6
CONTINUOUS
 10
16.544106
 20
31.342973
  0
VERTEX
  8
FOREGROUND
  6
CONTINUOUS
 10
16.290321
 20
31.412653
  0
VERTEX
  8
FOREGROUND
  6
CONTINUOUS
 10
16.083214
 20
31.590850
  0
VERTEX
  8
FOREGROUND
  6
CONTINUOUS
 10
15.946688
 20
31.831303
  0
VERTEX
  8
FOREGROUND
  6
CONTINUOUS
 10
15.918726
 20
31.924803
  0
VERTEX
  8
FOREGROUND
  6
CONTINUOUS
 10
15.901780
 20
32.020896
  0
VERTEX
  8
FOREGROUND
  6
CONTINUOUS
 10
15.896081
 20
32.118115
  0
VERTEX
  8
FOREGROUND
  6
CONTINUOUS
 10
15.922114
 20
32.320840
  0
VERTEX
  8
FOREGROUND
  6
CONTINUOUS
 10
16.001662
 20
32.508185
  0
VERTEX
  8
FOREGROUND
  6
CONTINUOUS
 10
16.136898
 20
32.666287
  0
VERTEX
  8
FOREGROUND
  6
CONTINUOUS
 10
16.226337
 20
32.729948
  0
VERTEX
  8
FOREGROUND
  6
CONTINUOUS
 10
16.323106
 20
32.777361
  0
SEQEND
  8
0
  0
POLYLINE
  8
FOREGROUND
  6
CONTINUOUS
 66
     1
 40
0.042000
 41
0.042000
 70
     1
  0
VERTEX
  8
FOREGROUND
  6
CONTINUOUS
 10
1.513899
 20
36.112999
  0
VERTEX
  8
FOREGROUND
  6
CONTINUOUS
 10
1.549791
 20
36.068126
  0
VERTEX
  8
FOREGROUND
  6
CONTINUOUS
 10
1.587819
 20
36.019798
  0
VERTEX
  8
FOREGROUND
  6
CONTINUOUS
 10
1.628000
 20
35.967999
  0
VERTEX
  8
FOREGROUND
  6
CONTINUOUS
 10
1.702000
 20
35.870999
  0
VERTEX
  8
FOREGROUND
  6
CONTINUOUS
 10
1.702259
 20
35.870999
  0
VERTEX
  8
FOREGROUND
  6
CONTINUOUS
 10
1.702741
 20
35.870999
  0
VERTEX
  8
FOREGROUND
  6
CONTINUOUS
 10
1.703000
 20
35.870999
  0
VERTEX
  8
FOREGROUND
  6
CONTINUOUS
 10
1.745963
 20
35.820036
  0
VERTEX
  8
FOREGROUND
  6
CONTINUOUS
 10
1.790704
 20
35.775296
  0
VERTEX
  8
FOREGROUND
  6
CONTINUOUS
 10
1.837000
 20
35.736999
  0
VERTEX
  8
FOREGROUND
  6
CONTINUOUS
 10
0.000000
 20
35.736999
  0
VERTEX
  8
FOREGROUND
  6
CONTINUOUS
 10
0.000000
 20
36.864999
  0
VERTEX
  8
FOREGROUND
  6
CONTINUOUS
 10
1.788000
 20
36.864999
  0
VERTEX
  8
FOREGROUND
  6
CONTINUOUS
 10
1.749296
 20
36.823814
  0
VERTEX
  8
FOREGROUND
  6
CONTINUOUS
 10
1.715037
 20
36.776851
  0
VERTEX
  8
FOREGROUND
  6
CONTINUOUS
 10
1.685000
 20
36.724999
  0
VERTEX
  8
FOREGROUND
  6
CONTINUOUS
 10
1.650333
 20
36.667629
  0
VERTEX
  8
FOREGROUND
  6
CONTINUOUS
 10
1.606333
 20
36.613370
  0
VERTEX
  8
FOREGROUND
  6
CONTINUOUS
 10
1.553000
 20
36.561999
  0
VERTEX
  8
FOREGROUND
  6
CONTINUOUS
 10
1.513898
 20
36.530689
  0
VERTEX
  8
FOREGROUND
  6
CONTINUOUS
 10
1.477464
 20
36.506776
  0
VERTEX
  8
FOREGROUND
  6
CONTINUOUS
 10
1.441000
 20
36.488999
  0
VERTEX
  8
FOREGROUND
  6
CONTINUOUS
 10
0.725000
 20
36.488999
  0
VERTEX
  8
FOREGROUND
  6
CONTINUOUS
 10
0.725000
 20
36.112999
  0
SEQEND
  8
0
  0
POLYLINE
  8
FOREGROUND
  6
CONTINUOUS
 66
     1
 40
0.042000
 41
0.042000
 70
     1
  0
VERTEX
  8
FOREGROUND
  6
CONTINUOUS
 10
18.486101
 20
36.112999
  0
VERTEX
  8
FOREGROUND
  6
CONTINUOUS
 10
19.275000
 20
36.112999
  0
VERTEX
  8
FOREGROUND
  6
CONTINUOUS
 10
19.275000
 20
36.488999
  0
VERTEX
  8
FOREGROUND
  6
CONTINUOUS
 10
18.559000
 20
36.488999
  0
VERTEX
  8
FOREGROUND
  6
CONTINUOUS
 10
18.522535
 20
36.506776
  0
VERTEX
  8
FOREGROUND
  6
CONTINUOUS
 10
18.486102
 20
36.530689
  0
VERTEX
  8
FOREGROUND
  6
CONTINUOUS
 10
18.447000
 20
36.561999
  0
VERTEX
  8
FOREGROUND
  6
CONTINUOUS
 10
18.393666
 20
36.613370
  0
VERTEX
  8
FOREGROUND
  6
CONTINUOUS
 10
18.349666
 20
36.667629
  0
VERTEX
  8
FOREGROUND
  6
CONTINUOUS
 10
18.315000
 20
36.724999
  0
VERTEX
  8
FOREGROUND
  6
CONTINUOUS
 10
18.284963
 20
36.776851
  0
VERTEX
  8
FOREGROUND
  6
CONTINUOUS
 10
18.250703
 20
36.823814
  0
VERTEX
  8
FOREGROUND
  6
CONTINUOUS
 10
18.212000
 20
36.864999
  0
VERTEX
  8
FOREGROUND
  6
CONTINUOUS
 10
20.000000
 20
36.864999
  0
VERTEX
  8
FOREGROUND
  6
CONTINUOUS
 10
20.000000
 20
35.736999
  0
VERTEX
  8
FOREGROUND
  6
CONTINUOUS
 10
18.163000
 20
35.736999
  0
VERTEX
  8
FOREGROUND
  6
CONTINUOUS
 10
18.209296
 20
35.775296
  0
VERTEX
  8
FOREGROUND
  6
CONTINUOUS
 10
18.254037
 20
35.820036
  0
VERTEX
  8
FOREGROUND
  6
CONTINUOUS
 10
18.297000
 20
35.870999
  0
VERTEX
  8
FOREGROUND
  6
CONTINUOUS
 10
18.297259
 20
35.870999
  0
VERTEX
  8
FOREGROUND
  6
CONTINUOUS
 10
18.297740
 20
35.870999
  0
VERTEX
  8
FOREGROUND
  6
CONTINUOUS
 10
18.298000
 20
35.870999
  0
VERTEX
  8
FOREGROUND
  6
CONTINUOUS
 10
18.372000
 20
35.967999
  0
VERTEX
  8
FOREGROUND
  6
CONTINUOUS
 10
18.412181
 20
36.019798
  0
VERTEX
  8
FOREGROUND
  6
CONTINUOUS
 10
18.450208
 20
36.068126
  0
SEQEND
  8
0
  0
POLYLINE
  8
FOREGROUND
  6
CONTINUOUS
 66
     1
 40
0.042000
 41
0.042000
 70
     1
  0
VERTEX
  8
FOREGROUND
  6
CONTINUOUS
 10
9.989000
 20
34.017999
  0
VERTEX
  8
FOREGROUND
  6
CONTINUOUS
 10
9.075194
 20
34.017999
  0
VERTEX
  8
FOREGROUND
  6
CONTINUOUS
 10
9.147821
 20
34.267999
  0
VERTEX
  8
FOREGROUND
  6
CONTINUOUS
 10
9.989000
 20
34.267999
  0
VERTEX
  8
FOREGROUND
  6
CONTINUOUS
 10
10.830179
 20
34.267999
  0
VERTEX
  8
FOREGROUND
  6
CONTINUOUS
 10
10.902806
 20
34.017999
  0
SEQEND
  8
0
  0
SOLID
  8
FOREGROUND
 10
1.501651
 20
36.964999
 11
0.000000
 21
36.964999
 12
1.501651
 22
39.343652
 13
0.000000
 23
39.343652
  0
POLYLINE
  8
FOREGROUND
  6
CONTINUOUS
 66
     1
 40
0.042000
 41
0.042000
 70
     1
  0
VERTEX
  8
FOREGROUND
  6
CONTINUOUS
 10
1.501651
 20
36.964999
  0
VERTEX
  8
FOREGROUND
  6
CONTINUOUS
 10
0.000000
 20
36.964999
  0
VERTEX
  8
FOREGROUND
  6
CONTINUOUS
 10
0.000000
 20
39.343652
  0
VERTEX
  8
FOREGROUND
  6
CONTINUOUS
 10
1.501651
 20
39.343652
  0
SEQEND
  8
0
  0
SOLID
  8
FOREGROUND
 10
18.498348
 20
36.964999
 11
18.498348
 21
39.343652
 12
20.000000
 22
36.964999
 13
20.000000
 23
39.343652
  0
POLYLINE
  8
FOREGROUND
  6
CONTINUOUS
 66
     1
 40
0.042000
 41
0.042000
 70
     1
  0
VERTEX
  8
FOREGROUND
  6
CONTINUOUS
 10
18.498348
 20
36.964999
  0
VERTEX
  8
FOREGROUND
  6
CONTINUOUS
 10
18.498348
 20
39.343652
  0
VERTEX
  8
FOREGROUND
  6
CONTINUOUS
 10
20.000000
 20
39.343652
  0
VERTEX
  8
FOREGROUND
  6
CONTINUOUS
 10
20.000000
 20
36.964999
  0
SEQEND
  8
0
  0
POLYLINE
  8
FOREGROUND
  6
CONTINUOUS
 66
     1
 40
0.042000
 41
0.042000
 70
     1
  0
VERTEX
  8
FOREGROUND
  6
CONTINUOUS
 10
16.574000
 20
36.309999
  0
VERTEX
  8
FOREGROUND
  6
CONTINUOUS
 10
16.239000
 20
36.296999
  0
VERTEX
  8
FOREGROUND
  6
CONTINUOUS
 10
16.170926
 20
36.279074
  0
VERTEX
  8
FOREGROUND
  6
CONTINUOUS
 10
16.165740
 20
36.248925
  0
VERTEX
  8
FOREGROUND
  6
CONTINUOUS
 10
16.219000
 20
36.232999
  0
VERTEX
  8
FOREGROUND
  6
CONTINUOUS
 10
16.571000
 20
36.231999
  0
VERTEX
  8
FOREGROUND
  6
CONTINUOUS
 10
16.584296
 20
36.132259
  0
VERTEX
  8
FOREGROUND
  6
CONTINUOUS
 10
16.616037
 20
36.040740
  0
VERTEX
  8
FOREGROUND
  6
CONTINUOUS
 10
16.666000
 20
35.956999
  0
VERTEX
  8
FOREGROUND
  6
CONTINUOUS
 10
16.657666
 20
35.946999
  0
VERTEX
  8
FOREGROUND
  6
CONTINUOUS
 10
16.648666
 20
35.936999
  0
VERTEX
  8
FOREGROUND
  6
CONTINUOUS
 10
16.639000
 20
35.926999
  0
VERTEX
  8
FOREGROUND
  6
CONTINUOUS
 10
16.467407
 20
35.805407
  0
VERTEX
  8
FOREGROUND
  6
CONTINUOUS
 10
16.261592
 20
35.751592
  0
VERTEX
  8
FOREGROUND
  6
CONTINUOUS
 10
16.050000
 20
35.781999
  0
VERTEX
  8
FOREGROUND
  6
CONTINUOUS
 10
15.905296
 20
35.871592
  0
VERTEX
  8
FOREGROUND
  6
CONTINUOUS
 10
15.815037
 20
36.001407
  0
VERTEX
  8
FOREGROUND
  6
CONTINUOUS
 10
15.743000
 20
36.172999
  0
VERTEX
  8
FOREGROUND
  6
CONTINUOUS
 10
15.689778
 20
36.214333
  0
VERTEX
  8
FOREGROUND
  6
CONTINUOUS
 10
15.599889
 20
36.250333
  0
VERTEX
  8
FOREGROUND
  6
CONTINUOUS
 10
15.524000
 20
36.286999
  0
VERTEX
  8
FOREGROUND
  6
CONTINUOUS
 10
15.600778
 20
36.336999
  0
VERTEX
  8
FOREGROUND
  6
CONTINUOUS
 10
15.683555
 20
36.390999
  0
VERTEX
  8
FOREGROUND
  6
CONTINUOUS
 10
15.743000
 20
36.454999
  0
VERTEX
  8
FOREGROUND
  6
CONTINUOUS
 10
15.830629
 20
36.602481
  0
VERTEX
  8
FOREGROUND
  6
CONTINUOUS
 10
15.930703
 20
36.720851
  0
VERTEX
  8
FOREGROUND
  6
CONTINUOUS
 10
16.063000
 20
36.824999
  0
VERTEX
  8
FOREGROUND
  6
CONTINUOUS
 10
16.253963
 20
36.869481
  0
VERTEX
  8
FOREGROUND
  6
CONTINUOUS
 10
16.443370
 20
36.807518
  0
VERTEX
  8
FOREGROUND
  6
CONTINUOUS
 10
16.587000
 20
36.687999
  0
VERTEX
  8
FOREGROUND
  6
CONTINUOUS
 10
16.619629
 20
36.645036
  0
VERTEX
  8
FOREGROUND
  6
CONTINUOUS
 10
16.649370
 20
36.602296
  0
VERTEX
  8
FOREGROUND
  6
CONTINUOUS
 10
16.676000
 20
36.559999
  0
VERTEX
  8
FOREGROUND
  6
CONTINUOUS
 10
16.626000
 20
36.483629
  0
VERTEX
  8
FOREGROUND
  6
CONTINUOUS
 10
16.592000
 20
36.400370
  0
SEQEND
  8
0
  0
POLYLINE
  8
FOREGROUND
  6
CONTINUOUS
 66
     1
 40
0.042000
 41
0.042000
 70
     1
  0
VERTEX
  8
FOREGROUND
  6
CONTINUOUS
 10
3.426000
 20
36.309999
  0
VERTEX
  8
FOREGROUND
  6
CONTINUOUS
 10
3.408000
 20
36.400370
  0
VERTEX
  8
FOREGROUND
  6
CONTINUOUS
 10
3.374000
 20
36.483629
  0
VERTEX
  8
FOREGROUND
  6
CONTINUOUS
 10
3.324000
 20
36.559999
  0
VERTEX
  8
FOREGROUND
  6
CONTINUOUS
 10
3.350630
 20
36.602296
  0
VERTEX
  8
FOREGROUND
  6
CONTINUOUS
 10
3.380370
 20
36.645036
  0
VERTEX
  8
FOREGROUND
  6
CONTINUOUS
 10
3.413000
 20
36.687999
  0
VERTEX
  8
FOREGROUND
  6
CONTINUOUS
 10
3.556630
 20
36.807518
  0
VERTEX
  8
FOREGROUND
  6
CONTINUOUS
 10
3.746037
 20
36.869481
  0
VERTEX
  8
FOREGROUND
  6
CONTINUOUS
 10
3.937000
 20
36.824999
  0
VERTEX
  8
FOREGROUND
  6
CONTINUOUS
 10
4.069296
 20
36.720851
  0
VERTEX
  8
FOREGROUND
  6
CONTINUOUS
 10
4.169370
 20
36.602481
  0
VERTEX
  8
FOREGROUND
  6
CONTINUOUS
 10
4.257000
 20
36.454999
  0
VERTEX
  8
FOREGROUND
  6
CONTINUOUS
 10
4.316444
 20
36.390999
  0
VERTEX
  8
FOREGROUND
  6
CONTINUOUS
 10
4.399222
 20
36.336999
  0
VERTEX
  8
FOREGROUND
  6
CONTINUOUS
 10
4.476000
 20
36.286999
  0
VERTEX
  8
FOREGROUND
  6
CONTINUOUS
 10
4.400111
 20
36.250333
  0
VERTEX
  8
FOREGROUND
  6
CONTINUOUS
 10
4.310222
 20
36.214333
  0
VERTEX
  8
FOREGROUND
  6
CONTINUOUS
 10
4.257000
 20
36.172999
  0
VERTEX
  8
FOREGROUND
  6
CONTINUOUS
 10
4.184963
 20
36.001407
  0
VERTEX
  8
FOREGROUND
  6
CONTINUOUS
 10
4.094704
 20
35.871592
  0
VERTEX
  8
FOREGROUND
  6
CONTINUOUS
 10
3.950000
 20
35.781999
  0
VERTEX
  8
FOREGROUND
  6
CONTINUOUS
 10
3.738407
 20
35.751592
  0
VERTEX
  8
FOREGROUND
  6
CONTINUOUS
 10
3.532593
 20
35.805407
  0
VERTEX
  8
FOREGROUND
  6
CONTINUOUS
 10
3.361000
 20
35.926999
  0
VERTEX
  8
FOREGROUND
  6
CONTINUOUS
 10
3.351333
 20
35.936999
  0
VERTEX
  8
FOREGROUND
  6
CONTINUOUS
 10
3.342333
 20
35.946999
  0
VERTEX
  8
FOREGROUND
  6
CONTINUOUS
 10
3.334000
 20
35.956999
  0
VERTEX
  8
FOREGROUND
  6
CONTINUOUS
 10
3.383963
 20
36.040740
  0
VERTEX
  8
FOREGROUND
  6
CONTINUOUS
 10
3.415704
 20
36.132259
  0
VERTEX
  8
FOREGROUND
  6
CONTINUOUS
 10
3.429000
 20
36.231999
  0
VERTEX
  8
FOREGROUND
  6
CONTINUOUS
 10
3.781000
 20
36.232999
  0
VERTEX
  8
FOREGROUND
  6
CONTINUOUS
 10
3.834259
 20
36.248925
  0
VERTEX
  8
FOREGROUND
  6
CONTINUOUS
 10
3.829074
 20
36.279074
  0
VERTEX
  8
FOREGROUND
  6
CONTINUOUS
 10
3.761000
 20
36.296999
  0
SEQEND
  8
0
  0
POLYLINE
  8
FOREGROUND
  6
CONTINUOUS
 66
     1
 40
0.042000
 41
0.042000
 70
     1
  0
VERTEX
  8
FOREGROUND
  6
CONTINUOUS
 10
17.039000
 20
35.750999
  0
VERTEX
  8
FOREGROUND
  6
CONTINUOUS
 10
17.043889
 20
35.634444
  0
VERTEX
  8
FOREGROUND
  6
CONTINUOUS
 10
17.048111
 20
35.517888
  0
VERTEX
  8
FOREGROUND
  6
CONTINUOUS
 10
17.051000
 20
35.399999
  0
VERTEX
  8
FOREGROUND
  6
CONTINUOUS
 10
17.067963
 20
35.362518
  0
VERTEX
  8
FOREGROUND
  6
CONTINUOUS
 10
17.097370
 20
35.360814
  0
VERTEX
  8
FOREGROUND
  6
CONTINUOUS
 10
17.113000
 20
35.395999
  0
VERTEX
  8
FOREGROUND
  6
CONTINUOUS
 10
17.114778
 20
35.514962
  0
VERTEX
  8
FOREGROUND
  6
CONTINUOUS
 10
17.117889
 20
35.633703
  0
VERTEX
  8
FOREGROUND
  6
CONTINUOUS
 10
17.119000
 20
35.751999
  0
VERTEX
  8
FOREGROUND
  6
CONTINUOUS
 10
17.230518
 20
35.774888
  0
VERTEX
  8
FOREGROUND
  6
CONTINUOUS
 10
17.332481
 20
35.823111
  0
VERTEX
  8
FOREGROUND
  6
CONTINUOUS
 10
17.424000
 20
35.895999
  0
VERTEX
  8
FOREGROUND
  6
CONTINUOUS
 10
17.499111
 20
35.841259
  0
VERTEX
  8
FOREGROUND
  6
CONTINUOUS
 10
17.563555
 20
35.776074
  0
VERTEX
  8
FOREGROUND
  6
CONTINUOUS
 10
17.610000
 20
35.701999
  0
VERTEX
  8
FOREGROUND
  6
CONTINUOUS
 10
17.624852
 20
35.485074
  0
VERTEX
  8
FOREGROUND
  6
CONTINUOUS
 10
17.518815
 20
35.297259
  0
VERTEX
  8
FOREGROUND
  6
CONTINUOUS
 10
17.369000
 20
35.148999
  0
VERTEX
  8
FOREGROUND
  6
CONTINUOUS
 10
17.261555
 20
35.030925
  0
VERTEX
  8
FOREGROUND
  6
CONTINUOUS
 10
17.176111
 20
34.896407
  0
VERTEX
  8
FOREGROUND
  6
CONTINUOUS
 10
17.096000
 20
34.756999
  0
VERTEX
  8
FOREGROUND
  6
CONTINUOUS
 10
17.020778
 20
34.873518
  0
VERTEX
  8
FOREGROUND
  6
CONTINUOUS
 10
16.934889
 20
34.993814
  0
VERTEX
  8
FOREGROUND
  6
CONTINUOUS
 10
16.835000
 20
35.082999
  0
VERTEX
  8
FOREGROUND
  6
CONTINUOUS
 10
16.650297
 20
35.223906
  0
VERTEX
  8
FOREGROUND
  6
CONTINUOUS
 10
16.520625
 20
35.415999
  0
VERTEX
  8
FOREGROUND
  6
CONTINUOUS
 10
16.513390
 20
35.639593
  0
VERTEX
  8
FOREGROUND
  6
CONTINUOUS
 10
16.696000
 20
35.874999
  0
VERTEX
  8
FOREGROUND
  6
CONTINUOUS
 10
16.704740
 20
35.881036
  0
VERTEX
  8
FOREGROUND
  6
CONTINUOUS
 10
16.713259
 20
35.887296
  0
VERTEX
  8
FOREGROUND
  6
CONTINUOUS
 10
16.722000
 20
35.893999
  0
VERTEX
  8
FOREGROUND
  6
CONTINUOUS
 10
16.816629
 20
35.818925
  0
VERTEX
  8
FOREGROUND
  6
CONTINUOUS
 10
16.922370
 20
35.771407
  0
SEQEND
  8
0
  0
POLYLINE
  8
FOREGROUND
  6
CONTINUOUS
 66
     1
 40
0.042000
 41
0.042000
 70
     1
  0
VERTEX
  8
FOREGROUND
  6
CONTINUOUS
 10
2.961000
 20
35.750999
  0
VERTEX
  8
FOREGROUND
  6
CONTINUOUS
 10
3.077630
 20
35.771407
  0
VERTEX
  8
FOREGROUND
  6
CONTINUOUS
 10
3.183370
 20
35.818925
  0
VERTEX
  8
FOREGROUND
  6
CONTINUOUS
 10
3.278000
 20
35.893999
  0
VERTEX
  8
FOREGROUND
  6
CONTINUOUS
 10
3.286741
 20
35.887296
  0
VERTEX
  8
FOREGROUND
  6
CONTINUOUS
 10
3.295259
 20
35.881036
  0
VERTEX
  8
FOREGROUND
  6
CONTINUOUS
 10
3.304000
 20
35.874999
  0
VERTEX
  8
FOREGROUND
  6
CONTINUOUS
 10
3.486609
 20
35.639593
  0
VERTEX
  8
FOREGROUND
  6
CONTINUOUS
 10
3.479375
 20
35.415999
  0
VERTEX
  8
FOREGROUND
  6
CONTINUOUS
 10
3.349703
 20
35.223906
  0
VERTEX
  8
FOREGROUND
  6
CONTINUOUS
 10
3.165000
 20
35.082999
  0
VERTEX
  8
FOREGROUND
  6
CONTINUOUS
 10
3.065111
 20
34.993814
  0
VERTEX
  8
FOREGROUND
  6
CONTINUOUS
 10
2.979222
 20
34.873518
  0
VERTEX
  8
FOREGROUND
  6
CONTINUOUS
 10
2.904000
 20
34.756999
  0
VERTEX
  8
FOREGROUND
  6
CONTINUOUS
 10
2.823889
 20
34.896407
  0
VERTEX
  8
FOREGROUND
  6
CONTINUOUS
 10
2.738444
 20
35.030925
  0
VERTEX
  8
FOREGROUND
  6
CONTINUOUS
 10
2.631000
 20
35.148999
  0
VERTEX
  8
FOREGROUND
  6
CONTINUOUS
 10
2.481185
 20
35.297259
  0
VERTEX
  8
FOREGROUND
  6
CONTINUOUS
 10
2.375148
 20
35.485074
  0
VERTEX
  8
FOREGROUND
  6
CONTINUOUS
 10
2.390000
 20
35.701999
  0
VERTEX
  8
FOREGROUND
  6
CONTINUOUS
 10
2.436444
 20
35.776074
  0
VERTEX
  8
FOREGROUND
  6
CONTINUOUS
 10
2.500889
 20
35.841259
  0
VERTEX
  8
FOREGROUND
  6
CONTINUOUS
 10
2.576000
 20
35.895999
  0
VERTEX
  8
FOREGROUND
  6
CONTINUOUS
 10
2.667518
 20
35.823111
  0
VERTEX
  8
FOREGROUND
  6
CONTINUOUS
 10
2.769481
 20
35.774888
  0
VERTEX
  8
FOREGROUND
  6
CONTINUOUS
 10
2.881000
 20
35.751999
  0
VERTEX
  8
FOREGROUND
  6
CONTINUOUS
 10
2.882111
 20
35.633703
  0
VERTEX
  8
FOREGROUND
  6
CONTINUOUS
 10
2.885222
 20
35.514962
  0
VERTEX
  8
FOREGROUND
  6
CONTINUOUS
 10
2.887000
 20
35.395999
  0
VERTEX
  8
FOREGROUND
  6
CONTINUOUS
 10
2.902630
 20
35.360814
  0
VERTEX
  8
FOREGROUND
  6
CONTINUOUS
 10
2.932037
 20
35.362518
  0
VERTEX
  8
FOREGROUND
  6
CONTINUOUS
 10
2.949000
 20
35.399999
  0
VERTEX
  8
FOREGROUND
  6
CONTINUOUS
 10
2.951889
 20
35.517888
  0
VERTEX
  8
FOREGROUND
  6
CONTINUOUS
 10
2.956111
 20
35.634444
  0
SEQEND
  8
0
  0
POLYLINE
  8
FOREGROUND
  6
CONTINUOUS
 66
     1
 40
0.042000
 41
0.042000
 70
     1
  0
VERTEX
  8
FOREGROUND
  6
CONTINUOUS
 10
17.067000
 20
36.752999
  0
VERTEX
  8
FOREGROUND
  6
CONTINUOUS
 10
17.061037
 20
36.868703
  0
VERTEX
  8
FOREGROUND
  6
CONTINUOUS
 10
17.063296
 20
36.983962
  0
VERTEX
  8
FOREGROUND
  6
CONTINUOUS
 10
17.074000
 20
37.098999
  0
VERTEX
  8
FOREGROUND
  6
CONTINUOUS
 10
17.062852
 20
37.136666
  0
VERTEX
  8
FOREGROUND
  6
CONTINUOUS
 10
17.033481
 20
37.140999
  0
VERTEX
  8
FOREGROUND
  6
CONTINUOUS
 10
17.013000
 20
37.107999
  0
VERTEX
  8
FOREGROUND
  6
CONTINUOUS
 10
16.997629
 20
36.987962
  0
VERTEX
  8
FOREGROUND
  6
CONTINUOUS
 10
16.988037
 20
36.867703
  0
VERTEX
  8
FOREGROUND
  6
CONTINUOUS
 10
16.988000
 20
36.746999
  0
VERTEX
  8
FOREGROUND
  6
CONTINUOUS
 10
16.891037
 20
36.721036
  0
VERTEX
  8
FOREGROUND
  6
CONTINUOUS
 10
16.802296
 20
36.675296
  0
VERTEX
  8
FOREGROUND
  6
CONTINUOUS
 10
16.722000
 20
36.609999
  0
VERTEX
  8
FOREGROUND
  6
CONTINUOUS
 10
16.587333
 20
36.722333
  0
VERTEX
  8
FOREGROUND
  6
CONTINUOUS
 10
16.502000
 20
36.873333
  0
VERTEX
  8
FOREGROUND
  6
CONTINUOUS
 10
16.482000
 20
37.056999
  0
VERTEX
  8
FOREGROUND
  6
CONTINUOUS
 10
16.562778
 20
37.259629
  0
VERTEX
  8
FOREGROUND
  6
CONTINUOUS
 10
16.728222
 20
37.408036
  0
VERTEX
  8
FOREGROUND
  6
CONTINUOUS
 10
16.929000
 20
37.553999
  0
VERTEX
  8
FOREGROUND
  6
CONTINUOUS
 10
16.970111
 20
37.605814
  0
VERTEX
  8
FOREGROUND
  6
CONTINUOUS
 10
17.009222
 20
37.675851
  0
VERTEX
  8
FOREGROUND
  6
CONTINUOUS
 10
17.043000
 20
37.734999
  0
VERTEX
  8
FOREGROUND
  6
CONTINUOUS
 10
17.083889
 20
37.644481
  0
VERTEX
  8
FOREGROUND
  6
CONTINUOUS
 10
17.139444
 20
37.554851
  0
VERTEX
  8
FOREGROUND
  6
CONTINUOUS
 10
17.211000
 20
37.492999
  0
VERTEX
  8
FOREGROUND
  6
CONTINUOUS
 10
17.363222
 20
37.425888
  0
VERTEX
  8
FOREGROUND
  6
CONTINUOUS
 10
17.506778
 20
37.330777
  0
VERTEX
  8
FOREGROUND
  6
CONTINUOUS
 10
17.601000
 20
37.150999
  0
VERTEX
  8
FOREGROUND
  6
CONTINUOUS
 10
17.597963
 20
36.975518
  0
VERTEX
  8
FOREGROUND
  6
CONTINUOUS
 10
17.523370
 20
36.791148
  0
VERTEX
  8
FOREGROUND
  6
CONTINUOUS
 10
17.393000
 20
36.636999
  0
VERTEX
  8
FOREGROUND
  6
CONTINUOUS
 10
17.296629
 20
36.701296
  0
VERTEX
  8
FOREGROUND
  6
CONTINUOUS
 10
17.189370
 20
36.740036
  0
VERTEX
  8
FOREGROUND
  6
CONTINUOUS
 10
17.071000
 20
36.752999
  0
VERTEX
  8
FOREGROUND
  6
CONTINUOUS
 10
17.069740
 20
36.752999
  0
VERTEX
  8
FOREGROUND
  6
CONTINUOUS
 10
17.068259
 20
36.752999
  0
SEQEND
  8
0
  0
POLYLINE
  8
FOREGROUND
  6
CONTINUOUS
 66
     1
 40
0.042000
 41
0.042000
 70
     1
  0
VERTEX
  8
FOREGROUND
  6
CONTINUOUS
 10
2.933000
 20
36.752999
  0
VERTEX
  8
FOREGROUND
  6
CONTINUOUS
 10
2.931741
 20
36.752999
  0
VERTEX
  8
FOREGROUND
  6
CONTINUOUS
 10
2.930259
 20
36.752999
  0
VERTEX
  8
FOREGROUND
  6
CONTINUOUS
 10
2.929000
 20
36.752999
  0
VERTEX
  8
FOREGROUND
  6
CONTINUOUS
 10
2.810630
 20
36.740036
  0
VERTEX
  8
FOREGROUND
  6
CONTINUOUS
 10
2.703370
 20
36.701296
  0
VERTEX
  8
FOREGROUND
  6
CONTINUOUS
 10
2.607000
 20
36.636999
  0
VERTEX
  8
FOREGROUND
  6
CONTINUOUS
 10
2.476630
 20
36.791148
  0
VERTEX
  8
FOREGROUND
  6
CONTINUOUS
 10
2.402037
 20
36.975518
  0
VERTEX
  8
FOREGROUND
  6
CONTINUOUS
 10
2.399000
 20
37.150999
  0
VERTEX
  8
FOREGROUND
  6
CONTINUOUS
 10
2.493222
 20
37.330777
  0
VERTEX
  8
FOREGROUND
  6
CONTINUOUS
 10
2.636778
 20
37.425888
  0
VERTEX
  8
FOREGROUND
  6
CONTINUOUS
 10
2.789000
 20
37.492999
  0
VERTEX
  8
FOREGROUND
  6
CONTINUOUS
 10
2.860556
 20
37.554851
  0
VERTEX
  8
FOREGROUND
  6
CONTINUOUS
 10
2.916111
 20
37.644481
  0
VERTEX
  8
FOREGROUND
  6
CONTINUOUS
 10
2.957000
 20
37.734999
  0
VERTEX
  8
FOREGROUND
  6
CONTINUOUS
 10
2.990778
 20
37.675851
  0
VERTEX
  8
FOREGROUND
  6
CONTINUOUS
 10
3.029889
 20
37.605814
  0
VERTEX
  8
FOREGROUND
  6
CONTINUOUS
 10
3.071000
 20
37.553999
  0
VERTEX
  8
FOREGROUND
  6
CONTINUOUS
 10
3.271778
 20
37.408036
  0
VERTEX
  8
FOREGROUND
  6
CONTINUOUS
 10
3.437222
 20
37.259629
  0
VERTEX
  8
FOREGROUND
  6
CONTINUOUS
 10
3.518000
 20
37.056999
  0
VERTEX
  8
FOREGROUND
  6
CONTINUOUS
 10
3.498000
 20
36.873333
  0
VERTEX
  8
FOREGROUND
  6
CONTINUOUS
 10
3.412667
 20
36.722333
  0
VERTEX
  8
FOREGROUND
  6
CONTINUOUS
 10
3.278000
 20
36.609999
  0
VERTEX
  8
FOREGROUND
  6
CONTINUOUS
 10
3.197704
 20
36.675296
  0
VERTEX
  8
FOREGROUND
  6
CONTINUOUS
 10
3.108963
 20
36.721036
  0
VERTEX
  8
FOREGROUND
  6
CONTINUOUS
 10
3.012000
 20
36.746999
  0
VERTEX
  8
FOREGROUND
  6
CONTINUOUS
 10
3.011963
 20
36.867703
  0
VERTEX
  8
FOREGROUND
  6
CONTINUOUS
 10
3.002370
 20
36.987962
  0
VERTEX
  8
FOREGROUND
  6
CONTINUOUS
 10
2.987000
 20
37.107999
  0
VERTEX
  8
FOREGROUND
  6
CONTINUOUS
 10
2.966518
 20
37.140999
  0
VERTEX
  8
FOREGROUND
  6
CONTINUOUS
 10
2.937148
 20
37.136666
  0
VERTEX
  8
FOREGROUND
  6
CONTINUOUS
 10
2.926000
 20
37.098999
  0
VERTEX
  8
FOREGROUND
  6
CONTINUOUS
 10
2.936704
 20
36.983962
  0
VERTEX
  8
FOREGROUND
  6
CONTINUOUS
 10
2.938963
 20
36.868703
  0
SEQEND
  8
0
  0
POLYLINE
  8
FOREGROUND
  6
CONTINUOUS
 66
     1
 40
0.042000
 41
0.042000
 70
     1
  0
VERTEX
  8
FOREGROUND
  6
CONTINUOUS
 10
16.931271
 20
33.368523
  0
VERTEX
  8
FOREGROUND
  6
CONTINUOUS
 10
16.922912
 20
33.375047
  0
VERTEX
  8
FOREGROUND
  6
CONTINUOUS
 10
16.913474
 20
33.378962
  0
VERTEX
  8
FOREGROUND
  6
CONTINUOUS
 10
16.902956
 20
33.380267
  0
VERTEX
  8
FOREGROUND
  6
CONTINUOUS
 10
16.897976
 20
33.379960
  0
VERTEX
  8
FOREGROUND
  6
CONTINUOUS
 10
16.893112
 20
33.379041
  0
VERTEX
  8
FOREGROUND
  6
CONTINUOUS
 10
16.888364
 20
33.377510
  0
VERTEX
  8
FOREGROUND
  6
CONTINUOUS
 10
16.552549
 20
33.285170
  0
VERTEX
  8
FOREGROUND
  6
CONTINUOUS
 10
16.209079
 20
33.267007
  0
VERTEX
  8
FOREGROUND
  6
CONTINUOUS
 10
15.866965
 20
33.324608
  0
VERTEX
  8
FOREGROUND
  6
CONTINUOUS
 10
15.826092
 20
33.320868
  0
VERTEX
  8
FOREGROUND
  6
CONTINUOUS
 10
15.814189
 20
33.295385
  0
VERTEX
  8
FOREGROUND
  6
CONTINUOUS
 10
15.841583
 20
33.270955
  0
VERTEX
  8
FOREGROUND
  6
CONTINUOUS
 10
16.199149
 20
33.198920
  0
VERTEX
  8
FOREGROUND
  6
CONTINUOUS
 10
16.562676
 20
33.209273
  0
VERTEX
  8
FOREGROUND
  6
CONTINUOUS
 10
16.917548
 20
33.302833
  0
VERTEX
  8
FOREGROUND
  6
CONTINUOUS
 10
16.924718
 20
33.306475
  0
VERTEX
  8
FOREGROUND
  6
CONTINUOUS
 10
16.930879
 20
33.311387
  0
VERTEX
  8
FOREGROUND
  6
CONTINUOUS
 10
16.936030
 20
33.317568
  0
VERTEX
  8
FOREGROUND
  6
CONTINUOUS
 10
16.939902
 20
33.324624
  0
VERTEX
  8
FOREGROUND
  6
CONTINUOUS
 10
16.942225
 20
33.332158
  0
VERTEX
  8
FOREGROUND
  6
CONTINUOUS
 10
16.943000
 20
33.340171
  0
VERTEX
  8
FOREGROUND
  6
CONTINUOUS
 10
16.941697
 20
33.350703
  0
VERTEX
  8
FOREGROUND
  6
CONTINUOUS
 10
16.937787
 20
33.360153
  0
SEQEND
  8
0
  0
POLYLINE
  8
FOREGROUND
  6
CONTINUOUS
 66
     1
 40
0.042000
 41
0.042000
 70
     1
  0
VERTEX
  8
FOREGROUND
  6
CONTINUOUS
 10
3.068729
 20
33.368523
  0
VERTEX
  8
FOREGROUND
  6
CONTINUOUS
 10
3.062213
 20
33.360153
  0
VERTEX
  8
FOREGROUND
  6
CONTINUOUS
 10
3.058303
 20
33.350703
  0
VERTEX
  8
FOREGROUND
  6
CONTINUOUS
 10
3.057000
 20
33.340171
  0
VERTEX
  8
FOREGROUND
  6
CONTINUOUS
 10
3.057774
 20
33.332158
  0
VERTEX
  8
FOREGROUND
  6
CONTINUOUS
 10
3.060098
 20
33.324624
  0
VERTEX
  8
FOREGROUND
  6
CONTINUOUS
 10
3.063970
 20
33.317568
  0
VERTEX
  8
FOREGROUND
  6
CONTINUOUS
 10
3.069121
 20
33.311387
  0
VERTEX
  8
FOREGROUND
  6
CONTINUOUS
 10
3.075282
 20
33.306475
  0
VERTEX
  8
FOREGROUND
  6
CONTINUOUS
 10
3.082452
 20
33.302833
  0
VERTEX
  8
FOREGROUND
  6
CONTINUOUS
 10
3.437324
 20
33.209273
  0
VERTEX
  8
FOREGROUND
  6
CONTINUOUS
 10
3.800851
 20
33.198920
  0
VERTEX
  8
FOREGROUND
  6
CONTINUOUS
 10
4.158417
 20
33.270955
  0
VERTEX
  8
FOREGROUND
  6
CONTINUOUS
 10
4.185811
 20
33.295385
  0
VERTEX
  8
FOREGROUND
  6
CONTINUOUS
 10
4.173908
 20
33.320868
  0
VERTEX
  8
FOREGROUND
  6
CONTINUOUS
 10
4.133034
 20
33.324608
  0
VERTEX
  8
FOREGROUND
  6
CONTINUOUS
 10
3.790921
 20
33.267007
  0
VERTEX
  8
FOREGROUND
  6
CONTINUOUS
 10
3.447451
 20
33.285170
  0
VERTEX
  8
FOREGROUND
  6
CONTINUOUS
 10
3.111636
 20
33.377510
  0
VERTEX
  8
FOREGROUND
  6
CONTINUOUS
 10
3.106887
 20
33.379041
  0
VERTEX
  8
FOREGROUND
  6
CONTINUOUS
 10
3.102023
 20
33.379960
  0
VERTEX
  8
FOREGROUND
  6
CONTINUOUS
 10
3.097044
 20
33.380267
  0
VERTEX
  8
FOREGROUND
  6
CONTINUOUS
 10
3.086526
 20
33.378962
  0
VERTEX
  8
FOREGROUND
  6
CONTINUOUS
 10
3.077087
 20
33.375047
  0
SEQEND
  8
0
  0
POLYLINE
  8
FOREGROUND
  6
CONTINUOUS
 66
     1
 40
0.042000
 41
0.042000
 70
     1
  0
VERTEX
  8
FOREGROUND
  6
CONTINUOUS
 10
2.428000
 20
36.274999
  0
VERTEX
  8
FOREGROUND
  6
CONTINUOUS
 10
2.428000
 20
36.266999
  0
VERTEX
  8
FOREGROUND
  6
CONTINUOUS
 10
2.428000
 20
36.258999
  0
VERTEX
  8
FOREGROUND
  6
CONTINUOUS
 10
2.428000
 20
36.250999
  0
VERTEX
  8
FOREGROUND
  6
CONTINUOUS
 10
2.436333
 20
36.155592
  0
VERTEX
  8
FOREGROUND
  6
CONTINUOUS
 10
2.461333
 20
36.067074
  0
VERTEX
  8
FOREGROUND
  6
CONTINUOUS
 10
2.503000
 20
35.984999
  0
VERTEX
  8
FOREGROUND
  6
CONTINUOUS
 10
2.482000
 20
35.952074
  0
VERTEX
  8
FOREGROUND
  6
CONTINUOUS
 10
2.459000
 20
35.919592
  0
VERTEX
  8
FOREGROUND
  6
CONTINUOUS
 10
2.434000
 20
35.887999
  0
VERTEX
  8
FOREGROUND
  6
CONTINUOUS
 10
2.212704
 20
35.743444
  0
VERTEX
  8
FOREGROUND
  6
CONTINUOUS
 10
1.980963
 20
35.770888
  0
VERTEX
  8
FOREGROUND
  6
CONTINUOUS
 10
1.781000
 20
35.932999
  0
VERTEX
  8
FOREGROUND
  6
CONTINUOUS
 10
1.665815
 20
36.081851
  0
VERTEX
  8
FOREGROUND
  6
CONTINUOUS
 10
1.546185
 20
36.232481
  0
VERTEX
  8
FOREGROUND
  6
CONTINUOUS
 10
1.419000
 20
36.375999
  0
VERTEX
  8
FOREGROUND
  6
CONTINUOUS
 10
1.551481
 20
36.436333
  0
VERTEX
  8
FOREGROUND
  6
CONTINUOUS
 10
1.678185
 20
36.543999
  0
VERTEX
  8
FOREGROUND
  6
CONTINUOUS
 10
1.774000
 20
36.678999
  0
VERTEX
  8
FOREGROUND
  6
CONTINUOUS
 10
1.999259
 20
36.871148
  0
VERTEX
  8
FOREGROUND
  6
CONTINUOUS
 10
2.266741
 20
36.858185
  0
VERTEX
  8
FOREGROUND
  6
CONTINUOUS
 10
2.456000
 20
36.718999
  0
VERTEX
  8
FOREGROUND
  6
CONTINUOUS
 10
2.486296
 20
36.666333
  0
VERTEX
  8
FOREGROUND
  6
CONTINUOUS
 10
2.513037
 20
36.614333
  0
VERTEX
  8
FOREGROUND
  6
CONTINUOUS
 10
2.536000
 20
36.562999
  0
VERTEX
  8
FOREGROUND
  6
CONTINUOUS
 10
2.491704
 20
36.498629
  0
VERTEX
  8
FOREGROUND
  6
CONTINUOUS
 10
2.458963
 20
36.429370
  0
VERTEX
  8
FOREGROUND
  6
CONTINUOUS
 10
2.438000
 20
36.354999
  0
VERTEX
  8
FOREGROUND
  6
CONTINUOUS
 10
2.345000
 20
36.367370
  0
VERTEX
  8
FOREGROUND
  6
CONTINUOUS
 10
2.230000
 20
36.378629
  0
VERTEX
  8
FOREGROUND
  6
CONTINUOUS
 10
2.093000
 20
36.382999
  0
VERTEX
  8
FOREGROUND
  6
CONTINUOUS
 10
2.060148
 20
36.364555
  0
VERTEX
  8
FOREGROUND
  6
CONTINUOUS
 10
2.054852
 20
36.330777
  0
VERTEX
  8
FOREGROUND
  6
CONTINUOUS
 10
2.100000
 20
36.310999
  0
VERTEX
  8
FOREGROUND
  6
CONTINUOUS
 10
2.233259
 20
36.301666
  0
VERTEX
  8
FOREGROUND
  6
CONTINUOUS
 10
2.341407
 20
36.288333
  0
SEQEND
  8
0
  0
POLYLINE
  8
FOREGROUND
  6
CONTINUOUS
 66
     1
 40
0.042000
 41
0.042000
 70
     1
  0
VERTEX
  8
FOREGROUND
  6
CONTINUOUS
 10
17.572000
 20
36.274999
  0
VERTEX
  8
FOREGROUND
  6
CONTINUOUS
 10
17.658592
 20
36.288333
  0
VERTEX
  8
FOREGROUND
  6
CONTINUOUS
 10
17.766740
 20
36.301666
  0
VERTEX
  8
FOREGROUND
  6
CONTINUOUS
 10
17.900000
 20
36.310999
  0
VERTEX
  8
FOREGROUND
  6
CONTINUOUS
 10
17.945148
 20
36.330777
  0
VERTEX
  8
FOREGROUND
  6
CONTINUOUS
 10
17.939852
 20
36.364555
  0
VERTEX
  8
FOREGROUND
  6
CONTINUOUS
 10
17.907000
 20
36.382999
  0
VERTEX
  8
FOREGROUND
  6
CONTINUOUS
 10
17.770000
 20
36.378629
  0
VERTEX
  8
FOREGROUND
  6
CONTINUOUS
 10
17.655000
 20
36.367370
  0
VERTEX
  8
FOREGROUND
  6
CONTINUOUS
 10
17.562000
 20
36.354999
  0
VERTEX
  8
FOREGROUND
  6
CONTINUOUS
 10
17.541037
 20
36.429370
  0
VERTEX
  8
FOREGROUND
  6
CONTINUOUS
 10
17.508296
 20
36.498629
  0
VERTEX
  8
FOREGROUND
  6
CONTINUOUS
 10
17.464000
 20
36.562999
  0
VERTEX
  8
FOREGROUND
  6
CONTINUOUS
 10
17.486963
 20
36.614333
  0
VERTEX
  8
FOREGROUND
  6
CONTINUOUS
 10
17.513703
 20
36.666333
  0
VERTEX
  8
FOREGROUND
  6
CONTINUOUS
 10
17.544000
 20
36.718999
  0
VERTEX
  8
FOREGROUND
  6
CONTINUOUS
 10
17.733259
 20
36.858185
  0
VERTEX
  8
FOREGROUND
  6
CONTINUOUS
 10
18.000740
 20
36.871148
  0
VERTEX
  8
FOREGROUND
  6
CONTINUOUS
 10
18.226000
 20
36.678999
  0
VERTEX
  8
FOREGROUND
  6
CONTINUOUS
 10
18.321815
 20
36.543999
  0
VERTEX
  8
FOREGROUND
  6
CONTINUOUS
 10
18.448518
 20
36.436333
  0
VERTEX
  8
FOREGROUND
  6
CONTINUOUS
 10
18.581000
 20
36.375999
  0
VERTEX
  8
FOREGROUND
  6
CONTINUOUS
 10
18.453815
 20
36.232481
  0
VERTEX
  8
FOREGROUND
  6
CONTINUOUS
 10
18.334185
 20
36.081851
  0
VERTEX
  8
FOREGROUND
  6
CONTINUOUS
 10
18.219000
 20
35.932999
  0
VERTEX
  8
FOREGROUND
  6
CONTINUOUS
 10
18.019037
 20
35.770888
  0
VERTEX
  8
FOREGROUND
  6
CONTINUOUS
 10
17.787296
 20
35.743444
  0
VERTEX
  8
FOREGROUND
  6
CONTINUOUS
 10
17.566000
 20
35.887999
  0
VERTEX
  8
FOREGROUND
  6
CONTINUOUS
 10
17.541000
 20
35.919592
  0
VERTEX
  8
FOREGROUND
  6
CONTINUOUS
 10
17.518000
 20
35.952074
  0
VERTEX
  8
FOREGROUND
  6
CONTINUOUS
 10
17.497000
 20
35.984999
  0
VERTEX
  8
FOREGROUND
  6
CONTINUOUS
 10
17.538666
 20
36.067074
  0
VERTEX
  8
FOREGROUND
  6
CONTINUOUS
 10
17.563666
 20
36.155592
  0
VERTEX
  8
FOREGROUND
  6
CONTINUOUS
 10
17.572000
 20
36.250999
  0
VERTEX
  8
FOREGROUND
  6
CONTINUOUS
 10
17.572000
 20
36.258999
  0
VERTEX
  8
FOREGROUND
  6
CONTINUOUS
 10
17.572000
 20
36.266999
  0
SEQEND
  8
0
  0
POLYLINE
  8
FOREGROUND
  6
CONTINUOUS
 66
     1
 40
0.042000
 41
0.042000
 70
     1
  0
VERTEX
  8
FOREGROUND
  6
CONTINUOUS
 10
11.644079
 20
33.945999
  0
VERTEX
  8
FOREGROUND
  6
CONTINUOUS
 10
12.445772
 20
33.945999
  0
VERTEX
  8
FOREGROUND
  6
CONTINUOUS
 10
12.587949
 20
34.234939
  0
VERTEX
  8
FOREGROUND
  6
CONTINUOUS
 10
12.588866
 20
34.688988
  0
VERTEX
  8
FOREGROUND
  6
CONTINUOUS
 10
12.576704
 20
34.827631
  0
VERTEX
  8
FOREGROUND
  6
CONTINUOUS
 10
12.545381
 20
34.923061
  0
VERTEX
  8
FOREGROUND
  6
CONTINUOUS
 10
12.502643
 20
34.987100
  0
VERTEX
  8
FOREGROUND
  6
CONTINUOUS
 10
12.438400
 20
35.043088
  0
VERTEX
  8
FOREGROUND
  6
CONTINUOUS
 10
12.361111
 20
35.077876
  0
VERTEX
  8
FOREGROUND
  6
CONTINUOUS
 10
12.276077
 20
35.089834
  0
VERTEX
  8
FOREGROUND
  6
CONTINUOUS
 10
11.964206
 20
35.088917
  0
VERTEX
  8
FOREGROUND
  6
CONTINUOUS
 10
11.927141
 20
35.093164
  0
VERTEX
  8
FOREGROUND
  6
CONTINUOUS
 10
11.898842
 20
35.104545
  0
VERTEX
  8
FOREGROUND
  6
CONTINUOUS
 10
11.877065
 20
35.121021
  0
VERTEX
  8
FOREGROUND
  6
CONTINUOUS
 10
11.865310
 20
35.135766
  0
VERTEX
  8
FOREGROUND
  6
CONTINUOUS
 10
11.857021
 20
35.150306
  0
VERTEX
  8
FOREGROUND
  6
CONTINUOUS
 10
11.851382
 20
35.161381
  0
VERTEX
  8
FOREGROUND
  6
CONTINUOUS
 10
11.847021
 20
35.164051
  0
VERTEX
  8
FOREGROUND
  6
CONTINUOUS
 10
11.841622
 20
35.162107
  0
VERTEX
  8
FOREGROUND
  6
CONTINUOUS
 10
11.836705
 20
35.158630
  0
VERTEX
  8
FOREGROUND
  6
CONTINUOUS
 10
11.788022
 20
35.103322
  0
VERTEX
  8
FOREGROUND
  6
CONTINUOUS
 10
11.752384
 20
35.030484
  0
VERTEX
  8
FOREGROUND
  6
CONTINUOUS
 10
11.738557
 20
34.958665
  0
VERTEX
  8
FOREGROUND
  6
CONTINUOUS
 10
11.749293
 20
34.887933
  0
VERTEX
  8
FOREGROUND
  6
CONTINUOUS
 10
11.782858
 20
34.819036
  0
VERTEX
  8
FOREGROUND
  6
CONTINUOUS
 10
11.841292
 20
34.755031
  0
VERTEX
  8
FOREGROUND
  6
CONTINUOUS
 10
11.778713
 20
34.678524
  0
VERTEX
  8
FOREGROUND
  6
CONTINUOUS
 10
11.746099
 20
34.607113
  0
VERTEX
  8
FOREGROUND
  6
CONTINUOUS
 10
11.736723
 20
34.538555
  0
VERTEX
  8
FOREGROUND
  6
CONTINUOUS
 10
11.739950
 20
34.498807
  0
VERTEX
  8
FOREGROUND
  6
CONTINUOUS
 10
11.746643
 20
34.468843
  0
VERTEX
  8
FOREGROUND
  6
CONTINUOUS
 10
11.752316
 20
34.450498
  0
VERTEX
  8
FOREGROUND
  6
CONTINUOUS
 10
11.706453
 20
34.423897
  0
VERTEX
  8
FOREGROUND
  6
CONTINUOUS
 10
11.754151
 20
34.341343
  0
VERTEX
  8
FOREGROUND
  6
CONTINUOUS
 10
11.802766
 20
34.369778
  0
VERTEX
  8
FOREGROUND
  6
CONTINUOUS
 10
11.830284
 20
34.382178
  0
VERTEX
  8
FOREGROUND
  6
CONTINUOUS
 10
11.870644
 20
34.391928
  0
VERTEX
  8
FOREGROUND
  6
CONTINUOUS
 10
11.929349
 20
34.396379
  0
VERTEX
  8
FOREGROUND
  6
CONTINUOUS
 10
12.082533
 20
34.398213
  0
VERTEX
  8
FOREGROUND
  6
CONTINUOUS
 10
12.148679
 20
34.415641
  0
VERTEX
  8
FOREGROUND
  6
CONTINUOUS
 10
12.194644
 20
34.461811
  0
VERTEX
  8
FOREGROUND
  6
CONTINUOUS
 10
12.211868
 20
34.527548
  0
VERTEX
  8
FOREGROUND
  6
CONTINUOUS
 10
12.205991
 20
34.564850
  0
VERTEX
  8
FOREGROUND
  6
CONTINUOUS
 10
12.189310
 20
34.598484
  0
VERTEX
  8
FOREGROUND
  6
CONTINUOUS
 10
12.163253
 20
34.626613
  0
VERTEX
  8
FOREGROUND
  6
CONTINUOUS
 10
12.138555
 20
34.642309
  0
VERTEX
  8
FOREGROUND
  6
CONTINUOUS
 10
12.106926
 20
34.651278
  0
VERTEX
  8
FOREGROUND
  6
CONTINUOUS
 10
12.057767
 20
34.654131
  0
VERTEX
  8
FOREGROUND
  6
CONTINUOUS
 10
11.976674
 20
34.664969
  0
VERTEX
  8
FOREGROUND
  6
CONTINUOUS
 10
11.940425
 20
34.691909
  0
VERTEX
  8
FOREGROUND
  6
CONTINUOUS
 10
11.932101
 20
34.726596
  0
VERTEX
  8
FOREGROUND
  6
CONTINUOUS
 10
11.941138
 20
34.756730
  0
VERTEX
  8
FOREGROUND
  6
CONTINUOUS
 10
11.983604
 20
34.784825
  0
VERTEX
  8
FOREGROUND
  6
CONTINUOUS
 10
12.082533
 20
34.797225
  0
VERTEX
  8
FOREGROUND
  6
CONTINUOUS
 10
12.241221
 20
34.797225
  0
VERTEX
  8
FOREGROUND
  6
CONTINUOUS
 10
12.357952
 20
34.764781
  0
VERTEX
  8
FOREGROUND
  6
CONTINUOUS
 10
12.443088
 20
34.678320
  0
VERTEX
  8
FOREGROUND
  6
CONTINUOUS
 10
12.476042
 20
34.554149
  0
VERTEX
  8
FOREGROUND
  6
CONTINUOUS
 10
12.476042
 20
34.239526
  0
VERTEX
  8
FOREGROUND
  6
CONTINUOUS
 10
11.785338
 20
34.239526
  0
SEQEND
  8
0
  0
POLYLINE
  8
FOREGROUND
  6
CONTINUOUS
 66
     1
 40
0.042000
 41
0.042000
 70
     1
  0
VERTEX
  8
FOREGROUND
  6
CONTINUOUS
 10
3.039729
 20
33.812743
  0
VERTEX
  8
FOREGROUND
  6
CONTINUOUS
 10
3.048087
 20
33.806219
  0
VERTEX
  8
FOREGROUND
  6
CONTINUOUS
 10
3.057526
 20
33.802304
  0
VERTEX
  8
FOREGROUND
  6
CONTINUOUS
 10
3.068044
 20
33.800999
  0
VERTEX
  8
FOREGROUND
  6
CONTINUOUS
 10
3.075439
 20
33.801665
  0
VERTEX
  8
FOREGROUND
  6
CONTINUOUS
 10
3.082457
 20
33.803661
  0
VERTEX
  8
FOREGROUND
  6
CONTINUOUS
 10
3.089096
 20
33.806988
  0
VERTEX
  8
FOREGROUND
  6
CONTINUOUS
 10
3.095038
 20
33.811446
  0
VERTEX
  8
FOREGROUND
  6
CONTINUOUS
 10
3.099959
 20
33.816838
  0
VERTEX
  8
FOREGROUND
  6
CONTINUOUS
 10
3.103860
 20
33.823164
  0
VERTEX
  8
FOREGROUND
  6
CONTINUOUS
 10
3.238339
 20
34.082038
  0
VERTEX
  8
FOREGROUND
  6
CONTINUOUS
 10
3.383951
 20
34.334794
  0
VERTEX
  8
FOREGROUND
  6
CONTINUOUS
 10
3.544351
 20
34.577421
  0
VERTEX
  8
FOREGROUND
  6
CONTINUOUS
 10
3.723195
 20
34.805909
  0
VERTEX
  8
FOREGROUND
  6
CONTINUOUS
 10
3.924139
 20
35.016250
  0
VERTEX
  8
FOREGROUND
  6
CONTINUOUS
 10
3.939351
 20
35.052799
  0
VERTEX
  8
FOREGROUND
  6
CONTINUOUS
 10
3.919206
 20
35.075678
  0
VERTEX
  8
FOREGROUND
  6
CONTINUOUS
 10
3.881835
 20
35.064256
  0
VERTEX
  8
FOREGROUND
  6
CONTINUOUS
 10
3.671763
 20
34.854578
  0
VERTEX
  8
FOREGROUND
  6
CONTINUOUS
 10
3.485674
 20
34.624897
  0
VERTEX
  8
FOREGROUND
  6
CONTINUOUS
 10
3.319661
 20
34.379531
  0
VERTEX
  8
FOREGROUND
  6
CONTINUOUS
 10
3.169814
 20
34.122801
  0
VERTEX
  8
FOREGROUND
  6
CONTINUOUS
 10
3.032228
 20
33.859026
  0
VERTEX
  8
FOREGROUND
  6
CONTINUOUS
 10
3.029879
 20
33.853271
  0
VERTEX
  8
FOREGROUND
  6
CONTINUOUS
 10
3.028470
 20
33.847294
  0
VERTEX
  8
FOREGROUND
  6
CONTINUOUS
 10
3.028000
 20
33.841095
  0
VERTEX
  8
FOREGROUND
  6
CONTINUOUS
 10
3.029303
 20
33.830563
  0
VERTEX
  8
FOREGROUND
  6
CONTINUOUS
 10
3.033213
 20
33.821113
  0
SEQEND
  8
0
  0
POLYLINE
  8
FOREGROUND
  6
CONTINUOUS
 66
     1
 40
0.042000
 41
0.042000
 70
     1
  0
VERTEX
  8
FOREGROUND
  6
CONTINUOUS
 10
16.960271
 20
33.812743
  0
VERTEX
  8
FOREGROUND
  6
CONTINUOUS
 10
16.966787
 20
33.821113
  0
VERTEX
  8
FOREGROUND
  6
CONTINUOUS
 10
16.970697
 20
33.830563
  0
VERTEX
  8
FOREGROUND
  6
CONTINUOUS
 10
16.972000
 20
33.841095
  0
VERTEX
  8
FOREGROUND
  6
CONTINUOUS
 10
16.971530
 20
33.847294
  0
VERTEX
  8
FOREGROUND
  6
CONTINUOUS
 10
16.970121
 20
33.853271
  0
VERTEX
  8
FOREGROUND
  6
CONTINUOUS
 10
16.967772
 20
33.859026
  0
VERTEX
  8
FOREGROUND
  6
CONTINUOUS
 10
16.830186
 20
34.122801
  0
VERTEX
  8
FOREGROUND
  6
CONTINUOUS
 10
16.680339
 20
34.379531
  0
VERTEX
  8
FOREGROUND
  6
CONTINUOUS
 10
16.514325
 20
34.624897
  0
VERTEX
  8
FOREGROUND
  6
CONTINUOUS
 10
16.328236
 20
34.854578
  0
VERTEX
  8
FOREGROUND
  6
CONTINUOUS
 10
16.118165
 20
35.064256
  0
VERTEX
  8
FOREGROUND
  6
CONTINUOUS
 10
16.080793
 20
35.075678
  0
VERTEX
  8
FOREGROUND
  6
CONTINUOUS
 10
16.060649
 20
35.052799
  0
VERTEX
  8
FOREGROUND
  6
CONTINUOUS
 10
16.075861
 20
35.016250
  0
VERTEX
  8
FOREGROUND
  6
CONTINUOUS
 10
16.276805
 20
34.805909
  0
VERTEX
  8
FOREGROUND
  6
CONTINUOUS
 10
16.455649
 20
34.577421
  0
VERTEX
  8
FOREGROUND
  6
CONTINUOUS
 10
16.616049
 20
34.334794
  0
VERTEX
  8
FOREGROUND
  6
CONTINUOUS
 10
16.761660
 20
34.082038
  0
VERTEX
  8
FOREGROUND
  6
CONTINUOUS
 10
16.896139
 20
33.823164
  0
VERTEX
  8
FOREGROUND
  6
CONTINUOUS
 10
16.900041
 20
33.816838
  0
VERTEX
  8
FOREGROUND
  6
CONTINUOUS
 10
16.904962
 20
33.811446
  0
VERTEX
  8
FOREGROUND
  6
CONTINUOUS
 10
16.910903
 20
33.806988
  0
VERTEX
  8
FOREGROUND
  6
CONTINUOUS
 10
16.917543
 20
33.803661
  0
VERTEX
  8
FOREGROUND
  6
CONTINUOUS
 10
16.924561
 20
33.801665
  0
VERTEX
  8
FOREGROUND
  6
CONTINUOUS
 10
16.931956
 20
33.800999
  0
VERTEX
  8
FOREGROUND
  6
CONTINUOUS
 10
16.942474
 20
33.802304
  0
VERTEX
  8
FOREGROUND
  6
CONTINUOUS
 10
16.951912
 20
33.806219
  0
SEQEND
  8
0
  0
POLYLINE
  8
FOREGROUND
  6
CONTINUOUS
 66
     1
 40
0.042000
 41
0.042000
 70
     1
  0
VERTEX
  8
FOREGROUND
  6
CONTINUOUS
 10
16.949150
 20
38.290743
  0
VERTEX
  8
FOREGROUND
  6
CONTINUOUS
 10
16.957509
 20
38.284219
  0
VERTEX
  8
FOREGROUND
  6
CONTINUOUS
 10
16.966947
 20
38.280304
  0
VERTEX
  8
FOREGROUND
  6
CONTINUOUS
 10
16.977465
 20
38.278999
  0
VERTEX
  8
FOREGROUND
  6
CONTINUOUS
 10
16.985495
 20
38.279780
  0
VERTEX
  8
FOREGROUND
  6
CONTINUOUS
 10
16.993042
 20
38.282121
  0
VERTEX
  8
FOREGROUND
  6
CONTINUOUS
 10
17.000106
 20
38.286023
  0
VERTEX
  8
FOREGROUND
  6
CONTINUOUS
 10
17.006289
 20
38.291213
  0
VERTEX
  8
FOREGROUND
  6
CONTINUOUS
 10
17.011192
 20
38.297417
  0
VERTEX
  8
FOREGROUND
  6
CONTINUOUS
 10
17.014815
 20
38.304635
  0
VERTEX
  8
FOREGROUND
  6
CONTINUOUS
 10
17.131552
 20
38.574285
  0
VERTEX
  8
FOREGROUND
  6
CONTINUOUS
 10
17.267272
 20
38.832795
  0
VERTEX
  8
FOREGROUND
  6
CONTINUOUS
 10
17.419612
 20
39.081513
  0
VERTEX
  8
FOREGROUND
  6
CONTINUOUS
 10
17.586207
 20
39.321789
  0
VERTEX
  8
FOREGROUND
  6
CONTINUOUS
 10
17.764693
 20
39.554970
  0
VERTEX
  8
FOREGROUND
  6
CONTINUOUS
 10
17.776029
 20
39.595379
  0
VERTEX
  8
FOREGROUND
  6
CONTINUOUS
 10
17.755801
 20
39.618782
  0
VERTEX
  8
FOREGROUND
  6
CONTINUOUS
 10
17.722578
 20
39.603627
  0
VERTEX
  8
FOREGROUND
  6
CONTINUOUS
 10
17.539092
 20
39.368152
  0
VERTEX
  8
FOREGROUND
  6
CONTINUOUS
 10
17.364744
 20
39.124324
  0
VERTEX
  8
FOREGROUND
  6
CONTINUOUS
 10
17.203893
 20
38.871227
  0
VERTEX
  8
FOREGROUND
  6
CONTINUOUS
 10
17.060898
 20
38.607943
  0
VERTEX
  8
FOREGROUND
  6
CONTINUOUS
 10
16.940116
 20
38.333555
  0
VERTEX
  8
FOREGROUND
  6
CONTINUOUS
 10
16.938619
 20
38.328847
  0
VERTEX
  8
FOREGROUND
  6
CONTINUOUS
 10
16.937721
 20
38.324027
  0
VERTEX
  8
FOREGROUND
  6
CONTINUOUS
 10
16.937421
 20
38.319095
  0
VERTEX
  8
FOREGROUND
  6
CONTINUOUS
 10
16.938724
 20
38.308563
  0
VERTEX
  8
FOREGROUND
  6
CONTINUOUS
 10
16.942634
 20
38.299113
  0
SEQEND
  8
0
  0
POLYLINE
  8
FOREGROUND
  6
CONTINUOUS
 66
     1
 40
0.042000
 41
0.042000
 70
     1
  0
VERTEX
  8
FOREGROUND
  6
CONTINUOUS
 10
3.050850
 20
38.290743
  0
VERTEX
  8
FOREGROUND
  6
CONTINUOUS
 10
3.057366
 20
38.299113
  0
VERTEX
  8
FOREGROUND
  6
CONTINUOUS
 10
3.061275
 20
38.308563
  0
VERTEX
  8
FOREGROUND
  6
CONTINUOUS
 10
3.062578
 20
38.319095
  0
VERTEX
  8
FOREGROUND
  6
CONTINUOUS
 10
3.062279
 20
38.324027
  0
VERTEX
  8
FOREGROUND
  6
CONTINUOUS
 10
3.061381
 20
38.328847
  0
VERTEX
  8
FOREGROUND
  6
CONTINUOUS
 10
3.059883
 20
38.333555
  0
VERTEX
  8
FOREGROUND
  6
CONTINUOUS
 10
2.939102
 20
38.607943
  0
VERTEX
  8
FOREGROUND
  6
CONTINUOUS
 10
2.796107
 20
38.871227
  0
VERTEX
  8
FOREGROUND
  6
CONTINUOUS
 10
2.635255
 20
39.124324
  0
VERTEX
  8
FOREGROUND
  6
CONTINUOUS
 10
2.460907
 20
39.368152
  0
VERTEX
  8
FOREGROUND
  6
CONTINUOUS
 10
2.277421
 20
39.603627
  0
VERTEX
  8
FOREGROUND
  6
CONTINUOUS
 10
2.244199
 20
39.618782
  0
VERTEX
  8
FOREGROUND
  6
CONTINUOUS
 10
2.223971
 20
39.595379
  0
VERTEX
  8
FOREGROUND
  6
CONTINUOUS
 10
2.235306
 20
39.554970
  0
VERTEX
  8
FOREGROUND
  6
CONTINUOUS
 10
2.413792
 20
39.321789
  0
VERTEX
  8
FOREGROUND
  6
CONTINUOUS
 10
2.580388
 20
39.081513
  0
VERTEX
  8
FOREGROUND
  6
CONTINUOUS
 10
2.732727
 20
38.832795
  0
VERTEX
  8
FOREGROUND
  6
CONTINUOUS
 10
2.868448
 20
38.574285
  0
VERTEX
  8
FOREGROUND
  6
CONTINUOUS
 10
2.985185
 20
38.304635
  0
VERTEX
  8
FOREGROUND
  6
CONTINUOUS
 10
2.988808
 20
38.297417
  0
VERTEX
  8
FOREGROUND
  6
CONTINUOUS
 10
2.993711
 20
38.291213
  0
VERTEX
  8
FOREGROUND
  6
CONTINUOUS
 10
2.999893
 20
38.286023
  0
VERTEX
  8
FOREGROUND
  6
CONTINUOUS
 10
3.006957
 20
38.282121
  0
VERTEX
  8
FOREGROUND
  6
CONTINUOUS
 10
3.014504
 20
38.279780
  0
VERTEX
  8
FOREGROUND
  6
CONTINUOUS
 10
3.022534
 20
38.278999
  0
VERTEX
  8
FOREGROUND
  6
CONTINUOUS
 10
3.033052
 20
38.280304
  0
VERTEX
  8
FOREGROUND
  6
CONTINUOUS
 10
3.042491
 20
38.284219
  0
SEQEND
  8
0
  0
POLYLINE
  8
FOREGROUND
  6
CONTINUOUS
 66
     1
 40
0.042000
 41
0.042000
 70
     1
  0
VERTEX
  8
FOREGROUND
  6
CONTINUOUS
 10
2.928000
 20
36.652952
  0
VERTEX
  8
FOREGROUND
  6
CONTINUOUS
 10
3.130110
 20
36.598211
  0
VERTEX
  8
FOREGROUND
  6
CONTINUOUS
 10
3.273769
 20
36.454368
  0
VERTEX
  8
FOREGROUND
  6
CONTINUOUS
 10
3.328440
 20
36.251999
  0
VERTEX
  8
FOREGROUND
  6
CONTINUOUS
 10
3.273769
 20
36.049631
  0
VERTEX
  8
FOREGROUND
  6
CONTINUOUS
 10
3.130110
 20
35.905788
  0
VERTEX
  8
FOREGROUND
  6
CONTINUOUS
 10
2.928000
 20
35.851046
  0
VERTEX
  8
FOREGROUND
  6
CONTINUOUS
 10
2.725890
 20
35.905788
  0
VERTEX
  8
FOREGROUND
  6
CONTINUOUS
 10
2.582231
 20
36.049631
  0
VERTEX
  8
FOREGROUND
  6
CONTINUOUS
 10
2.527559
 20
36.251999
  0
VERTEX
  8
FOREGROUND
  6
CONTINUOUS
 10
2.582231
 20
36.454368
  0
VERTEX
  8
FOREGROUND
  6
CONTINUOUS
 10
2.725890
 20
36.598211
  0
SEQEND
  8
0
  0
POLYLINE
  8
FOREGROUND
  6
CONTINUOUS
 66
     1
 40
0.042000
 41
0.042000
 70
     1
  0
VERTEX
  8
FOREGROUND
  6
CONTINUOUS
 10
17.072000
 20
36.652952
  0
VERTEX
  8
FOREGROUND
  6
CONTINUOUS
 10
17.274110
 20
36.598211
  0
VERTEX
  8
FOREGROUND
  6
CONTINUOUS
 10
17.417768
 20
36.454368
  0
VERTEX
  8
FOREGROUND
  6
CONTINUOUS
 10
17.472440
 20
36.251999
  0
VERTEX
  8
FOREGROUND
  6
CONTINUOUS
 10
17.417768
 20
36.049631
  0
VERTEX
  8
FOREGROUND
  6
CONTINUOUS
 10
17.274110
 20
35.905788
  0
VERTEX
  8
FOREGROUND
  6
CONTINUOUS
 10
17.072000
 20
35.851046
  0
VERTEX
  8
FOREGROUND
  6
CONTINUOUS
 10
16.869890
 20
35.905788
  0
VERTEX
  8
FOREGROUND
  6
CONTINUOUS
 10
16.726231
 20
36.049631
  0
VERTEX
  8
FOREGROUND
  6
CONTINUOUS
 10
16.671559
 20
36.251999
  0
VERTEX
  8
FOREGROUND
  6
CONTINUOUS
 10
16.726231
 20
36.454368
  0
VERTEX
  8
FOREGROUND
  6
CONTINUOUS
 10
16.869890
 20
36.598211
  0
SEQEND
  8
0
  0
POLYLINE
  8
FOREGROUND
  6
CONTINUOUS
 66
     1
 40
0.042000
 41
0.042000
 70
     1
  0
VERTEX
  8
FOREGROUND
  6
CONTINUOUS
 10
9.989000
 20
34.367999
  0
VERTEX
  8
FOREGROUND
  6
CONTINUOUS
 10
9.587299
 20
34.367999
  0
VERTEX
  8
FOREGROUND
  6
CONTINUOUS
 10
9.629803
 20
34.542999
  0
VERTEX
  8
FOREGROUND
  6
CONTINUOUS
 10
9.989000
 20
34.542999
  0
VERTEX
  8
FOREGROUND
  6
CONTINUOUS
 10
10.348196
 20
34.542999
  0
VERTEX
  8
FOREGROUND
  6
CONTINUOUS
 10
10.390701
 20
34.367999
  0
SEQEND
  8
0
  0
POLYLINE
  8
FOREGROUND
  6
CONTINUOUS
 66
     1
 40
0.042000
 41
0.042000
 70
     1
  0
VERTEX
  8
FOREGROUND
  6
CONTINUOUS
 10
7.672880
 20
33.980999
  0
VERTEX
  8
FOREGROUND
  6
CONTINUOUS
 10
8.036119
 20
33.980999
  0
VERTEX
  8
FOREGROUND
  6
CONTINUOUS
 10
8.086841
 20
33.986809
  0
VERTEX
  8
FOREGROUND
  6
CONTINUOUS
 10
8.128186
 20
34.004237
  0
VERTEX
  8
FOREGROUND
  6
CONTINUOUS
 10
8.161785
 20
34.033284
  0
VERTEX
  8
FOREGROUND
  6
CONTINUOUS
 10
8.192327
 20
34.079215
  0
VERTEX
  8
FOREGROUND
  6
CONTINUOUS
 10
8.213492
 20
34.137173
  0
VERTEX
  8
FOREGROUND
  6
CONTINUOUS
 10
8.221408
 20
34.200227
  0
VERTEX
  8
FOREGROUND
  6
CONTINUOUS
 10
8.215972
 20
34.255467
  0
VERTEX
  8
FOREGROUND
  6
CONTINUOUS
 10
8.203606
 20
34.313153
  0
VERTEX
  8
FOREGROUND
  6
CONTINUOUS
 10
8.190220
 20
34.370839
  0
VERTEX
  8
FOREGROUND
  6
CONTINUOUS
 10
8.173540
 20
34.467118
  0
VERTEX
  8
FOREGROUND
  6
CONTINUOUS
 10
8.165624
 20
34.541179
  0
VERTEX
  8
FOREGROUND
  6
CONTINUOUS
 10
8.163620
 20
34.620336
  0
VERTEX
  8
FOREGROUND
  6
CONTINUOUS
 10
8.164911
 20
34.683696
  0
VERTEX
  8
FOREGROUND
  6
CONTINUOUS
 10
8.173947
 20
34.769477
  0
VERTEX
  8
FOREGROUND
  6
CONTINUOUS
 10
8.198476
 20
34.922118
  0
VERTEX
  8
FOREGROUND
  6
CONTINUOUS
 10
8.202659
 20
34.946882
  0
VERTEX
  8
FOREGROUND
  6
CONTINUOUS
 10
8.206173
 20
34.971741
  0
VERTEX
  8
FOREGROUND
  6
CONTINUOUS
 10
8.207649
 20
34.992748
  0
VERTEX
  8
FOREGROUND
  6
CONTINUOUS
 10
8.191342
 20
35.061033
  0
VERTEX
  8
FOREGROUND
  6
CONTINUOUS
 10
8.144459
 20
35.107304
  0
VERTEX
  8
FOREGROUND
  6
CONTINUOUS
 10
8.070058
 20
35.124834
  0
VERTEX
  8
FOREGROUND
  6
CONTINUOUS
 10
7.995759
 20
35.125752
  0
VERTEX
  8
FOREGROUND
  6
CONTINUOUS
 10
7.943747
 20
35.135128
  0
VERTEX
  8
FOREGROUND
  6
CONTINUOUS
 10
7.908653
 20
35.159181
  0
VERTEX
  8
FOREGROUND
  6
CONTINUOUS
 10
7.890273
 20
35.191795
  0
VERTEX
  8
FOREGROUND
  6
CONTINUOUS
 10
7.888156
 20
35.197537
  0
VERTEX
  8
FOREGROUND
  6
CONTINUOUS
 10
7.884560
 20
35.201972
  0
VERTEX
  8
FOREGROUND
  6
CONTINUOUS
 10
7.879266
 20
35.200968
  0
VERTEX
  8
FOREGROUND
  6
CONTINUOUS
 10
7.819881
 20
35.135943
  0
VERTEX
  8
FOREGROUND
  6
CONTINUOUS
 10
7.784550
 20
35.063581
  0
VERTEX
  8
FOREGROUND
  6
CONTINUOUS
 10
7.772863
 20
34.991830
  0
VERTEX
  8
FOREGROUND
  6
CONTINUOUS
 10
7.791752
 20
34.906252
  0
VERTEX
  8
FOREGROUND
  6
CONTINUOUS
 10
7.845701
 20
34.852066
  0
VERTEX
  8
FOREGROUND
  6
CONTINUOUS
 10
7.930633
 20
34.833143
  0
VERTEX
  8
FOREGROUND
  6
CONTINUOUS
 10
8.079231
 20
34.834060
  0
VERTEX
  8
FOREGROUND
  6
CONTINUOUS
 10
8.054974
 20
34.711825
  0
VERTEX
  8
FOREGROUND
  6
CONTINUOUS
 10
8.043559
 20
34.615682
  0
VERTEX
  8
FOREGROUND
  6
CONTINUOUS
 10
8.040706
 20
34.527692
  0
VERTEX
  8
FOREGROUND
  6
CONTINUOUS
 10
8.043457
 20
34.448603
  0
VERTEX
  8
FOREGROUND
  6
CONTINUOUS
 10
8.051713
 20
34.362176
  0
VERTEX
  8
FOREGROUND
  6
CONTINUOUS
 10
8.065472
 20
34.274526
  0
VERTEX
  8
FOREGROUND
  6
CONTINUOUS
 10
7.811388
 20
34.274526
  0
SEQEND
  8
0
  0
SOLID
  8
FOREGROUND
 10
10.971635
 20
37.617442
 11
10.971635
 21
37.442442
 12
10.522463
 22
37.617442
 13
10.522463
 23
37.442442
  0
POLYLINE
  8
FOREGROUND
  6
CONTINUOUS
 66
     1
 40
0.042000
 41
0.042000
 70
     1
  0
VERTEX
  8
FOREGROUND
  6
CONTINUOUS
 10
10.971635
 20
37.617442
  0
VERTEX
  8
FOREGROUND
  6
CONTINUOUS
 10
10.971635
 20
37.442442
  0
VERTEX
  8
FOREGROUND
  6
CONTINUOUS
 10
10.522463
 20
37.442442
  0
VERTEX
  8
FOREGROUND
  6
CONTINUOUS
 10
10.522463
 20
37.617442
  0
SEQEND
  8
0
  0
SOLID
  8
FOREGROUND
 10
9.002365
 20
37.617442
 11
9.451537
 21
37.617442
 12
9.002365
 22
37.442442
 13
9.451537
 23
37.442442
  0
POLYLINE
  8
FOREGROUND
  6
CONTINUOUS
 66
     1
 40
0.042000
 41
0.042000
 70
     1
  0
VERTEX
  8
FOREGROUND
  6
CONTINUOUS
 10
9.002365
 20
37.617442
  0
VERTEX
  8
FOREGROUND
  6
CONTINUOUS
 10
9.451537
 20
37.617442
  0
VERTEX
  8
FOREGROUND
  6
CONTINUOUS
 10
9.451537
 20
37.442442
  0
VERTEX
  8
FOREGROUND
  6
CONTINUOUS
 10
9.002365
 20
37.442442
  0
SEQEND
  8
0
  0
SOLID
  8
FOREGROUND
 10
7.630270
 20
36.975793
 11
8.079442
 21
36.975793
 12
7.630270
 22
36.800793
 13
8.079442
 23
36.800793
  0
POLYLINE
  8
FOREGROUND
  6
CONTINUOUS
 66
     1
 40
0.042000
 41
0.042000
 70
     1
  0
VERTEX
  8
FOREGROUND
  6
CONTINUOUS
 10
7.630270
 20
36.975793
  0
VERTEX
  8
FOREGROUND
  6
CONTINUOUS
 10
8.079442
 20
36.975793
  0
VERTEX
  8
FOREGROUND
  6
CONTINUOUS
 10
8.079442
 20
36.800793
  0
VERTEX
  8
FOREGROUND
  6
CONTINUOUS
 10
7.630270
 20
36.800793
  0
SEQEND
  8
0
  0
SOLID
  8
FOREGROUND
 10
12.343730
 20
36.975793
 11
12.343730
 21
36.800793
 12
11.894557
 22
36.975793
 13
11.894557
 23
36.800793
  0
POLYLINE
  8
FOREGROUND
  6
CONTINUOUS
 66
     1
 40
0.042000
 41
0.042000
 70
     1
  0
VERTEX
  8
FOREGROUND
  6
CONTINUOUS
 10
12.343730
 20
36.975793
  0
VERTEX
  8
FOREGROUND
  6
CONTINUOUS
 10
12.343730
 20
36.800793
  0
VERTEX
  8
FOREGROUND
  6
CONTINUOUS
 10
11.894557
 20
36.800793
  0
VERTEX
  8
FOREGROUND
  6
CONTINUOUS
 10
11.894557
 20
36.975793
  0
SEQEND
  8
0
  0
SOLID
  8
FOREGROUND
 10
8.282000
 20
37.294018
 11
8.731172
 21
37.294018
 12
8.282000
 22
37.119018
 13
8.731172
 23
37.119018
  0
POLYLINE
  8
FOREGROUND
  6
CONTINUOUS
 66
     1
 40
0.042000
 41
0.042000
 70
     1
  0
VERTEX
  8
FOREGROUND
  6
CONTINUOUS
 10
8.282000
 20
37.294018
  0
VERTEX
  8
FOREGROUND
  6
CONTINUOUS
 10
8.731172
 20
37.294018
  0
VERTEX
  8
FOREGROUND
  6
CONTINUOUS
 10
8.731172
 20
37.119018
  0
VERTEX
  8
FOREGROUND
  6
CONTINUOUS
 10
8.282000
 20
37.119018
  0
SEQEND
  8
0
  0
SOLID
  8
FOREGROUND
 10
9.765000
 20
37.814999
 11
10.214172
 21
37.814999
 12
9.765000
 22
37.639999
 13
10.214172
 23
37.639999
  0
POLYLINE
  8
FOREGROUND
  6
CONTINUOUS
 66
     1
 40
0.042000
 41
0.042000
 70
     1
  0
VERTEX
  8
FOREGROUND
  6
CONTINUOUS
 10
9.765000
 20
37.814999
  0
VERTEX
  8
FOREGROUND
  6
CONTINUOUS
 10
10.214172
 20
37.814999
  0
VERTEX
  8
FOREGROUND
  6
CONTINUOUS
 10
10.214172
 20
37.639999
  0
VERTEX
  8
FOREGROUND
  6
CONTINUOUS
 10
9.765000
 20
37.639999
  0
SEQEND
  8
0
  0
SOLID
  8
FOREGROUND
 10
11.692000
 20
37.294018
 11
11.692000
 21
37.119018
 12
11.242827
 22
37.294018
 13
11.242827
 23
37.119018
  0
POLYLINE
  8
FOREGROUND
  6
CONTINUOUS
 66
     1
 40
0.042000
 41
0.042000
 70
     1
  0
VERTEX
  8
FOREGROUND
  6
CONTINUOUS
 10
11.692000
 20
37.294018
  0
VERTEX
  8
FOREGROUND
  6
CONTINUOUS
 10
11.692000
 20
37.119018
  0
VERTEX
  8
FOREGROUND
  6
CONTINUOUS
 10
11.242827
 20
37.119018
  0
VERTEX
  8
FOREGROUND
  6
CONTINUOUS
 10
11.242827
 20
37.294018
  0
SEQEND
  8
0
  0
POLYLINE
  8
FOREGROUND
  6
CONTINUOUS
 66
     1
 40
0.042000
 41
0.042000
 70
     1
  0
VERTEX
  8
FOREGROUND
  6
CONTINUOUS
 10
9.989000
 20
34.930014
  0
VERTEX
  8
FOREGROUND
  6
CONTINUOUS
 10
10.096253
 20
34.910388
  0
VERTEX
  8
FOREGROUND
  6
CONTINUOUS
 10
10.172487
 20
34.858818
  0
VERTEX
  8
FOREGROUND
  6
CONTINUOUS
 10
10.201500
 20
34.786264
  0
VERTEX
  8
FOREGROUND
  6
CONTINUOUS
 10
10.172487
 20
34.713711
  0
VERTEX
  8
FOREGROUND
  6
CONTINUOUS
 10
10.096253
 20
34.662140
  0
VERTEX
  8
FOREGROUND
  6
CONTINUOUS
 10
9.989000
 20
34.642514
  0
VERTEX
  8
FOREGROUND
  6
CONTINUOUS
 10
9.881747
 20
34.662140
  0
VERTEX
  8
FOREGROUND
  6
CONTINUOUS
 10
9.805512
 20
34.713711
  0
VERTEX
  8
FOREGROUND
  6
CONTINUOUS
 10
9.776500
 20
34.786264
  0
VERTEX
  8
FOREGROUND
  6
CONTINUOUS
 10
9.805512
 20
34.858818
  0
VERTEX
  8
FOREGROUND
  6
CONTINUOUS
 10
9.881747
 20
34.910388
  0
SEQEND
  8
0
  0
POLYLINE
  8
FOREGROUND
  6
CONTINUOUS
 66
     1
 40
0.042000
 41
0.042000
 70
     1
  0
VERTEX
  8
FOREGROUND
  6
CONTINUOUS
 10
2.578750
 20
33.631743
  0
VERTEX
  8
FOREGROUND
  6
CONTINUOUS
 10
2.585266
 20
33.640113
  0
VERTEX
  8
FOREGROUND
  6
CONTINUOUS
 10
2.589176
 20
33.649563
  0
VERTEX
  8
FOREGROUND
  6
CONTINUOUS
 10
2.590479
 20
33.660095
  0
VERTEX
  8
FOREGROUND
  6
CONTINUOUS
 10
2.590064
 20
33.665912
  0
VERTEX
  8
FOREGROUND
  6
CONTINUOUS
 10
2.588820
 20
33.671546
  0
VERTEX
  8
FOREGROUND
  6
CONTINUOUS
 10
2.586747
 20
33.676997
  0
VERTEX
  8
FOREGROUND
  6
CONTINUOUS
 10
2.476930
 20
33.949243
  0
VERTEX
  8
FOREGROUND
  6
CONTINUOUS
 10
2.396458
 20
34.231734
  0
VERTEX
  8
FOREGROUND
  6
CONTINUOUS
 10
2.348435
 20
34.520815
  0
VERTEX
  8
FOREGROUND
  6
CONTINUOUS
 10
2.335967
 20
34.812835
  0
VERTEX
  8
FOREGROUND
  6
CONTINUOUS
 10
2.320939
 20
34.849512
  0
VERTEX
  8
FOREGROUND
  6
CONTINUOUS
 10
2.291349
 20
34.850560
  0
VERTEX
  8
FOREGROUND
  6
CONTINUOUS
 10
2.273922
 20
34.812835
  0
VERTEX
  8
FOREGROUND
  6
CONTINUOUS
 10
2.280439
 20
34.511144
  0
VERTEX
  8
FOREGROUND
  6
CONTINUOUS
 10
2.324009
 20
34.213717
  0
VERTEX
  8
FOREGROUND
  6
CONTINUOUS
 10
2.402585
 20
33.923439
  0
VERTEX
  8
FOREGROUND
  6
CONTINUOUS
 10
2.514122
 20
33.643193
  0
VERTEX
  8
FOREGROUND
  6
CONTINUOUS
 10
2.517953
 20
33.636600
  0
VERTEX
  8
FOREGROUND
  6
CONTINUOUS
 10
2.522879
 20
33.630966
  0
VERTEX
  8
FOREGROUND
  6
CONTINUOUS
 10
2.528899
 20
33.626291
  0
VERTEX
  8
FOREGROUND
  6
CONTINUOUS
 10
2.535670
 20
33.622796
  0
VERTEX
  8
FOREGROUND
  6
CONTINUOUS
 10
2.542849
 20
33.620699
  0
VERTEX
  8
FOREGROUND
  6
CONTINUOUS
 10
2.550435
 20
33.619999
  0
VERTEX
  8
FOREGROUND
  6
CONTINUOUS
 10
2.560953
 20
33.621304
  0
VERTEX
  8
FOREGROUND
  6
CONTINUOUS
 10
2.570391
 20
33.625219
  0
SEQEND
  8
0
  0
POLYLINE
  8
FOREGROUND
  6
CONTINUOUS
 66
     1
 40
0.042000
 41
0.042000
 70
     1
  0
VERTEX
  8
FOREGROUND
  6
CONTINUOUS
 10
17.421250
 20
33.631743
  0
VERTEX
  8
FOREGROUND
  6
CONTINUOUS
 10
17.429609
 20
33.625219
  0
VERTEX
  8
FOREGROUND
  6
CONTINUOUS
 10
17.439047
 20
33.621304
  0
VERTEX
  8
FOREGROUND
  6
CONTINUOUS
 10
17.449565
 20
33.619999
  0
VERTEX
  8
FOREGROUND
  6
CONTINUOUS
 10
17.457151
 20
33.620699
  0
VERTEX
  8
FOREGROUND
  6
CONTINUOUS
 10
17.464330
 20
33.622796
  0
VERTEX
  8
FOREGROUND
  6
CONTINUOUS
 10
17.471101
 20
33.626291
  0
VERTEX
  8
FOREGROUND
  6
CONTINUOUS
 10
17.477121
 20
33.630966
  0
VERTEX
  8
FOREGROUND
  6
CONTINUOUS
 10
17.482046
 20
33.636600
  0
VERTEX
  8
FOREGROUND
  6
CONTINUOUS
 10
17.485877
 20
33.643193
  0
VERTEX
  8
FOREGROUND
  6
CONTINUOUS
 10
17.597414
 20
33.923439
  0
VERTEX
  8
FOREGROUND
  6
CONTINUOUS
 10
17.675991
 20
34.213717
  0
VERTEX
  8
FOREGROUND
  6
CONTINUOUS
 10
17.719561
 20
34.511144
  0
VERTEX
  8
FOREGROUND
  6
CONTINUOUS
 10
17.726078
 20
34.812835
  0
VERTEX
  8
FOREGROUND
  6
CONTINUOUS
 10
17.708651
 20
34.850560
  0
VERTEX
  8
FOREGROUND
  6
CONTINUOUS
 10
17.679061
 20
34.849512
  0
VERTEX
  8
FOREGROUND
  6
CONTINUOUS
 10
17.664032
 20
34.812835
  0
VERTEX
  8
FOREGROUND
  6
CONTINUOUS
 10
17.651565
 20
34.520815
  0
VERTEX
  8
FOREGROUND
  6
CONTINUOUS
 10
17.603542
 20
34.231734
  0
VERTEX
  8
FOREGROUND
  6
CONTINUOUS
 10
17.523069
 20
33.949243
  0
VERTEX
  8
FOREGROUND
  6
CONTINUOUS
 10
17.413253
 20
33.676997
  0
VERTEX
  8
FOREGROUND
  6
CONTINUOUS
 10
17.411180
 20
33.671546
  0
VERTEX
  8
FOREGROUND
  6
CONTINUOUS
 10
17.409936
 20
33.665912
  0
VERTEX
  8
FOREGROUND
  6
CONTINUOUS
 10
17.409521
 20
33.660095
  0
VERTEX
  8
FOREGROUND
  6
CONTINUOUS
 10
17.410824
 20
33.649563
  0
VERTEX
  8
FOREGROUND
  6
CONTINUOUS
 10
17.414734
 20
33.640113
  0
SEQEND
  8
0
  0
POLYLINE
  8
FOREGROUND
  6
CONTINUOUS
 66
     1
 40
0.042000
 41
0.042000
 70
     1
  0
VERTEX
  8
FOREGROUND
  6
CONTINUOUS
 10
3.038000
 20
39.054474
  0
VERTEX
  8
FOREGROUND
  6
CONTINUOUS
 10
3.277213
 20
38.288785
  0
VERTEX
  8
FOREGROUND
  6
CONTINUOUS
 10
3.288213
 20
38.270737
  0
VERTEX
  8
FOREGROUND
  6
CONTINUOUS
 10
3.305270
 20
38.259725
  0
VERTEX
  8
FOREGROUND
  6
CONTINUOUS
 10
3.324604
 20
38.255999
  0
VERTEX
  8
FOREGROUND
  6
CONTINUOUS
 10
3.341454
 20
38.259352
  0
VERTEX
  8
FOREGROUND
  6
CONTINUOUS
 10
3.353855
 20
38.269549
  0
VERTEX
  8
FOREGROUND
  6
CONTINUOUS
 10
3.358683
 20
38.286795
  0
VERTEX
  8
FOREGROUND
  6
CONTINUOUS
 10
3.358429
 20
38.291461
  0
VERTEX
  8
FOREGROUND
  6
CONTINUOUS
 10
3.357645
 20
38.296468
  0
VERTEX
  8
FOREGROUND
  6
CONTINUOUS
 10
3.356300
 20
38.301816
  0
VERTEX
  8
FOREGROUND
  6
CONTINUOUS
 10
3.128265
 20
39.071269
  0
VERTEX
  8
FOREGROUND
  6
CONTINUOUS
 10
3.098019
 20
39.066972
  0
VERTEX
  8
FOREGROUND
  6
CONTINUOUS
 10
3.067931
 20
39.061374
  0
SEQEND
  8
0
  0
POLYLINE
  8
FOREGROUND
  6
CONTINUOUS
 66
     1
 40
0.042000
 41
0.042000
 70
     1
  0
VERTEX
  8
FOREGROUND
  6
CONTINUOUS
 10
16.962000
 20
39.054474
  0
VERTEX
  8
FOREGROUND
  6
CONTINUOUS
 10
16.932069
 20
39.061374
  0
VERTEX
  8
FOREGROUND
  6
CONTINUOUS
 10
16.901981
 20
39.066972
  0
VERTEX
  8
FOREGROUND
  6
CONTINUOUS
 10
16.871735
 20
39.071269
  0
VERTEX
  8
FOREGROUND
  6
CONTINUOUS
 10
16.643700
 20
38.301816
  0
VERTEX
  8
FOREGROUND
  6
CONTINUOUS
 10
16.642355
 20
38.296468
  0
VERTEX
  8
FOREGROUND
  6
CONTINUOUS
 10
16.641571
 20
38.291461
  0
VERTEX
  8
FOREGROUND
  6
CONTINUOUS
 10
16.641316
 20
38.286795
  0
VERTEX
  8
FOREGROUND
  6
CONTINUOUS
 10
16.646145
 20
38.269549
  0
VERTEX
  8
FOREGROUND
  6
CONTINUOUS
 10
16.658546
 20
38.259352
  0
VERTEX
  8
FOREGROUND
  6
CONTINUOUS
 10
16.675396
 20
38.255999
  0
VERTEX
  8
FOREGROUND
  6
CONTINUOUS
 10
16.694730
 20
38.259725
  0
VERTEX
  8
FOREGROUND
  6
CONTINUOUS
 10
16.711787
 20
38.270737
  0
VERTEX
  8
FOREGROUND
  6
CONTINUOUS
 10
16.722787
 20
38.288785
  0
SEQEND
  8
0
  0
POLYLINE
  8
FOREGROUND
  6
CONTINUOUS
 66
     1
 40
0.042000
 41
0.042000
 70
     1
  0
VERTEX
  8
FOREGROUND
  6
CONTINUOUS
 10
4.323000
 20
40.380887
  0
VERTEX
  8
FOREGROUND
  6
CONTINUOUS
 10
4.405107
 20
40.358648
  0
VERTEX
  8
FOREGROUND
  6
CONTINUOUS
 10
4.463468
 20
40.300212
  0
VERTEX
  8
FOREGROUND
  6
CONTINUOUS
 10
4.485679
 20
40.217999
  0
VERTEX
  8
FOREGROUND
  6
CONTINUOUS
 10
4.463468
 20
40.135787
  0
VERTEX
  8
FOREGROUND
  6
CONTINUOUS
 10
4.405107
 20
40.077351
  0
VERTEX
  8
FOREGROUND
  6
CONTINUOUS
 10
4.323000
 20
40.055112
  0
VERTEX
  8
FOREGROUND
  6
CONTINUOUS
 10
4.240893
 20
40.077351
  0
VERTEX
  8
FOREGROUND
  6
CONTINUOUS
 10
4.182531
 20
40.135787
  0
VERTEX
  8
FOREGROUND
  6
CONTINUOUS
 10
4.160321
 20
40.217999
  0
VERTEX
  8
FOREGROUND
  6
CONTINUOUS
 10
4.182531
 20
40.300212
  0
VERTEX
  8
FOREGROUND
  6
CONTINUOUS
 10
4.240893
 20
40.358648
  0
SEQEND
  8
0
  0
POLYLINE
  8
FOREGROUND
  6
CONTINUOUS
 66
     1
 40
0.042000
 41
0.042000
 70
     1
  0
VERTEX
  8
FOREGROUND
  6
CONTINUOUS
 10
15.677000
 20
40.380887
  0
VERTEX
  8
FOREGROUND
  6
CONTINUOUS
 10
15.759107
 20
40.358648
  0
VERTEX
  8
FOREGROUND
  6
CONTINUOUS
 10
15.817468
 20
40.300212
  0
VERTEX
  8
FOREGROUND
  6
CONTINUOUS
 10
15.839679
 20
40.217999
  0
VERTEX
  8
FOREGROUND
  6
CONTINUOUS
 10
15.817468
 20
40.135787
  0
VERTEX
  8
FOREGROUND
  6
CONTINUOUS
 10
15.759107
 20
40.077351
  0
VERTEX
  8
FOREGROUND
  6
CONTINUOUS
 10
15.677000
 20
40.055112
  0
VERTEX
  8
FOREGROUND
  6
CONTINUOUS
 10
15.594893
 20
40.077351
  0
VERTEX
  8
FOREGROUND
  6
CONTINUOUS
 10
15.536531
 20
40.135787
  0
VERTEX
  8
FOREGROUND
  6
CONTINUOUS
 10
15.514321
 20
40.217999
  0
VERTEX
  8
FOREGROUND
  6
CONTINUOUS
 10
15.536531
 20
40.300212
  0
VERTEX
  8
FOREGROUND
  6
CONTINUOUS
 10
15.594893
 20
40.358648
  0
SEQEND
  8
0
  0
POLYLINE
  8
FOREGROUND
  6
CONTINUOUS
 66
     1
 40
0.042000
 41
0.042000
 70
     1
  0
VERTEX
  8
FOREGROUND
  6
CONTINUOUS
 10
9.226365
 20
38.264208
  0
VERTEX
  8
FOREGROUND
  6
CONTINUOUS
 10
9.164554
 20
38.277716
  0
VERTEX
  8
FOREGROUND
  6
CONTINUOUS
 10
9.112950
 20
38.318311
  0
VERTEX
  8
FOREGROUND
  6
CONTINUOUS
 10
9.081786
 20
38.390303
  0
VERTEX
  8
FOREGROUND
  6
CONTINUOUS
 10
9.077020
 20
38.419388
  0
VERTEX
  8
FOREGROUND
  6
CONTINUOUS
 10
9.074220
 20
38.447964
  0
VERTEX
  8
FOREGROUND
  6
CONTINUOUS
 10
9.073304
 20
38.476086
  0
VERTEX
  8
FOREGROUND
  6
CONTINUOUS
 10
9.093484
 20
38.609415
  0
VERTEX
  8
FOREGROUND
  6
CONTINUOUS
 10
9.147678
 20
38.739483
  0
VERTEX
  8
FOREGROUND
  6
CONTINUOUS
 10
9.226365
 20
38.872692
  0
VERTEX
  8
FOREGROUND
  6
CONTINUOUS
 10
9.305052
 20
38.739483
  0
VERTEX
  8
FOREGROUND
  6
CONTINUOUS
 10
9.359245
 20
38.609415
  0
VERTEX
  8
FOREGROUND
  6
CONTINUOUS
 10
9.379426
 20
38.476086
  0
VERTEX
  8
FOREGROUND
  6
CONTINUOUS
 10
9.378510
 20
38.447964
  0
VERTEX
  8
FOREGROUND
  6
CONTINUOUS
 10
9.375709
 20
38.419388
  0
VERTEX
  8
FOREGROUND
  6
CONTINUOUS
 10
9.370944
 20
38.390303
  0
VERTEX
  8
FOREGROUND
  6
CONTINUOUS
 10
9.340533
 20
38.318686
  0
VERTEX
  8
FOREGROUND
  6
CONTINUOUS
 10
9.290221
 20
38.277414
  0
VERTEX
  8
FOREGROUND
  6
CONTINUOUS
 10
9.229711
 20
38.264171
  0
SEQEND
  8
0
  0
POLYLINE
  8
FOREGROUND
  6
CONTINUOUS
 66
     1
 40
0.042000
 41
0.042000
 70
     1
  0
VERTEX
  8
FOREGROUND
  6
CONTINUOUS
 10
9.989000
 20
38.592803
  0
VERTEX
  8
FOREGROUND
  6
CONTINUOUS
 10
9.927189
 20
38.606310
  0
VERTEX
  8
FOREGROUND
  6
CONTINUOUS
 10
9.875585
 20
38.646905
  0
VERTEX
  8
FOREGROUND
  6
CONTINUOUS
 10
9.844421
 20
38.718897
  0
VERTEX
  8
FOREGROUND
  6
CONTINUOUS
 10
9.843258
 20
38.884475
  0
VERTEX
  8
FOREGROUND
  6
CONTINUOUS
 10
9.896984
 20
39.041549
  0
VERTEX
  8
FOREGROUND
  6
CONTINUOUS
 10
9.989000
 20
39.201287
  0
VERTEX
  8
FOREGROUND
  6
CONTINUOUS
 10
10.081016
 20
39.041549
  0
VERTEX
  8
FOREGROUND
  6
CONTINUOUS
 10
10.134742
 20
38.884475
  0
VERTEX
  8
FOREGROUND
  6
CONTINUOUS
 10
10.133579
 20
38.718897
  0
VERTEX
  8
FOREGROUND
  6
CONTINUOUS
 10
10.102415
 20
38.646283
  0
VERTEX
  8
FOREGROUND
  6
CONTINUOUS
 10
10.050811
 20
38.605066
  0
SEQEND
  8
0
  0
POLYLINE
  8
FOREGROUND
  6
CONTINUOUS
 66
     1
 40
0.042000
 41
0.042000
 70
     1
  0
VERTEX
  8
FOREGROUND
  6
CONTINUOUS
 10
7.854270
 20
37.652340
  0
VERTEX
  8
FOREGROUND
  6
CONTINUOUS
 10
7.792459
 20
37.665848
  0
VERTEX
  8
FOREGROUND
  6
CONTINUOUS
 10
7.740855
 20
37.706443
  0
VERTEX
  8
FOREGROUND
  6
CONTINUOUS
 10
7.709691
 20
37.778434
  0
VERTEX
  8
FOREGROUND
  6
CONTINUOUS
 10
7.704925
 20
37.807520
  0
VERTEX
  8
FOREGROUND
  6
CONTINUOUS
 10
7.702125
 20
37.836096
  0
VERTEX
  8
FOREGROUND
  6
CONTINUOUS
 10
7.701209
 20
37.864218
  0
VERTEX
  8
FOREGROUND
  6
CONTINUOUS
 10
7.721389
 20
37.997547
  0
VERTEX
  8
FOREGROUND
  6
CONTINUOUS
 10
7.775583
 20
38.127614
  0
VERTEX
  8
FOREGROUND
  6
CONTINUOUS
 10
7.854270
 20
38.260824
  0
VERTEX
  8
FOREGROUND
  6
CONTINUOUS
 10
7.932957
 20
38.127614
  0
VERTEX
  8
FOREGROUND
  6
CONTINUOUS
 10
7.987151
 20
37.997547
  0
VERTEX
  8
FOREGROUND
  6
CONTINUOUS
 10
8.007331
 20
37.864218
  0
VERTEX
  8
FOREGROUND
  6
CONTINUOUS
 10
8.006415
 20
37.836096
  0
VERTEX
  8
FOREGROUND
  6
CONTINUOUS
 10
8.003615
 20
37.807520
  0
VERTEX
  8
FOREGROUND
  6
CONTINUOUS
 10
7.998849
 20
37.778434
  0
VERTEX
  8
FOREGROUND
  6
CONTINUOUS
 10
7.968439
 20
37.706818
  0
VERTEX
  8
FOREGROUND
  6
CONTINUOUS
 10
7.918127
 20
37.665546
  0
VERTEX
  8
FOREGROUND
  6
CONTINUOUS
 10
7.857616
 20
37.652303
  0
SEQEND
  8
0
  0
POLYLINE
  8
FOREGROUND
  6
CONTINUOUS
 66
     1
 40
0.042000
 41
0.042000
 70
     1
  0
VERTEX
  8
FOREGROUND
  6
CONTINUOUS
 10
12.119730
 20
37.652340
  0
VERTEX
  8
FOREGROUND
  6
CONTINUOUS
 10
12.116383
 20
37.652303
  0
VERTEX
  8
FOREGROUND
  6
CONTINUOUS
 10
12.055873
 20
37.665546
  0
VERTEX
  8
FOREGROUND
  6
CONTINUOUS
 10
12.005561
 20
37.706818
  0
VERTEX
  8
FOREGROUND
  6
CONTINUOUS
 10
11.975151
 20
37.778434
  0
VERTEX
  8
FOREGROUND
  6
CONTINUOUS
 10
11.970385
 20
37.807520
  0
VERTEX
  8
FOREGROUND
  6
CONTINUOUS
 10
11.967584
 20
37.836096
  0
VERTEX
  8
FOREGROUND
  6
CONTINUOUS
 10
11.966669
 20
37.864218
  0
VERTEX
  8
FOREGROUND
  6
CONTINUOUS
 10
11.986849
 20
37.997547
  0
VERTEX
  8
FOREGROUND
  6
CONTINUOUS
 10
12.041043
 20
38.127614
  0
VERTEX
  8
FOREGROUND
  6
CONTINUOUS
 10
12.119730
 20
38.260824
  0
VERTEX
  8
FOREGROUND
  6
CONTINUOUS
 10
12.198417
 20
38.127614
  0
VERTEX
  8
FOREGROUND
  6
CONTINUOUS
 10
12.252610
 20
37.997547
  0
VERTEX
  8
FOREGROUND
  6
CONTINUOUS
 10
12.272791
 20
37.864218
  0
VERTEX
  8
FOREGROUND
  6
CONTINUOUS
 10
12.271875
 20
37.836096
  0
VERTEX
  8
FOREGROUND
  6
CONTINUOUS
 10
12.269074
 20
37.807520
  0
VERTEX
  8
FOREGROUND
  6
CONTINUOUS
 10
12.264308
 20
37.778434
  0
VERTEX
  8
FOREGROUND
  6
CONTINUOUS
 10
12.233144
 20
37.706443
  0
VERTEX
  8
FOREGROUND
  6
CONTINUOUS
 10
12.181541
 20
37.665848
  0
SEQEND
  8
0
  0
POLYLINE
  8
FOREGROUND
  6
CONTINUOUS
 66
     1
 40
0.042000
 41
0.042000
 70
     1
  0
VERTEX
  8
FOREGROUND
  6
CONTINUOUS
 10
10.747635
 20
38.264208
  0
VERTEX
  8
FOREGROUND
  6
CONTINUOUS
 10
10.744289
 20
38.264171
  0
VERTEX
  8
FOREGROUND
  6
CONTINUOUS
 10
10.683778
 20
38.277414
  0
VERTEX
  8
FOREGROUND
  6
CONTINUOUS
 10
10.633466
 20
38.318686
  0
VERTEX
  8
FOREGROUND
  6
CONTINUOUS
 10
10.603056
 20
38.390303
  0
VERTEX
  8
FOREGROUND
  6
CONTINUOUS
 10
10.598290
 20
38.419388
  0
VERTEX
  8
FOREGROUND
  6
CONTINUOUS
 10
10.595490
 20
38.447964
  0
VERTEX
  8
FOREGROUND
  6
CONTINUOUS
 10
10.594574
 20
38.476086
  0
VERTEX
  8
FOREGROUND
  6
CONTINUOUS
 10
10.614754
 20
38.609415
  0
VERTEX
  8
FOREGROUND
  6
CONTINUOUS
 10
10.668948
 20
38.739483
  0
VERTEX
  8
FOREGROUND
  6
CONTINUOUS
 10
10.747635
 20
38.872692
  0
VERTEX
  8
FOREGROUND
  6
CONTINUOUS
 10
10.826322
 20
38.739483
  0
VERTEX
  8
FOREGROUND
  6
CONTINUOUS
 10
10.880516
 20
38.609415
  0
VERTEX
  8
FOREGROUND
  6
CONTINUOUS
 10
10.900696
 20
38.476086
  0
VERTEX
  8
FOREGROUND
  6
CONTINUOUS
 10
10.899780
 20
38.447964
  0
VERTEX
  8
FOREGROUND
  6
CONTINUOUS
 10
10.896980
 20
38.419388
  0
VERTEX
  8
FOREGROUND
  6
CONTINUOUS
 10
10.892214
 20
38.390303
  0
VERTEX
  8
FOREGROUND
  6
CONTINUOUS
 10
10.861050
 20
38.318311
  0
VERTEX
  8
FOREGROUND
  6
CONTINUOUS
 10
10.809446
 20
38.277716
  0
SEQEND
  8
0
  0
POLYLINE
  8
FOREGROUND
  6
CONTINUOUS
 66
     1
 40
0.042000
 41
0.042000
 70
     1
  0
VERTEX
  8
FOREGROUND
  6
CONTINUOUS
 10
8.506000
 20
37.964609
  0
VERTEX
  8
FOREGROUND
  6
CONTINUOUS
 10
8.444189
 20
37.978116
  0
VERTEX
  8
FOREGROUND
  6
CONTINUOUS
 10
8.392585
 20
38.018711
  0
VERTEX
  8
FOREGROUND
  6
CONTINUOUS
 10
8.361421
 20
38.090703
  0
VERTEX
  8
FOREGROUND
  6
CONTINUOUS
 10
8.356655
 20
38.119788
  0
VERTEX
  8
FOREGROUND
  6
CONTINUOUS
 10
8.353855
 20
38.148365
  0
VERTEX
  8
FOREGROUND
  6
CONTINUOUS
 10
8.352939
 20
38.176486
  0
VERTEX
  8
FOREGROUND
  6
CONTINUOUS
 10
8.373119
 20
38.309816
  0
VERTEX
  8
FOREGROUND
  6
CONTINUOUS
 10
8.427313
 20
38.439883
  0
VERTEX
  8
FOREGROUND
  6
CONTINUOUS
 10
8.506000
 20
38.573093
  0
VERTEX
  8
FOREGROUND
  6
CONTINUOUS
 10
8.584687
 20
38.439883
  0
VERTEX
  8
FOREGROUND
  6
CONTINUOUS
 10
8.638881
 20
38.309816
  0
VERTEX
  8
FOREGROUND
  6
CONTINUOUS
 10
8.659061
 20
38.176486
  0
VERTEX
  8
FOREGROUND
  6
CONTINUOUS
 10
8.658145
 20
38.148365
  0
VERTEX
  8
FOREGROUND
  6
CONTINUOUS
 10
8.655344
 20
38.119788
  0
VERTEX
  8
FOREGROUND
  6
CONTINUOUS
 10
8.650579
 20
38.090703
  0
VERTEX
  8
FOREGROUND
  6
CONTINUOUS
 10
8.620168
 20
38.019086
  0
VERTEX
  8
FOREGROUND
  6
CONTINUOUS
 10
8.569857
 20
37.977815
  0
VERTEX
  8
FOREGROUND
  6
CONTINUOUS
 10
8.509346
 20
37.964572
  0
SEQEND
  8
0
  0
POLYLINE
  8
FOREGROUND
  6
CONTINUOUS
 66
     1
 40
0.042000
 41
0.042000
 70
     1
  0
VERTEX
  8
FOREGROUND
  6
CONTINUOUS
 10
11.468000
 20
37.964609
  0
VERTEX
  8
FOREGROUND
  6
CONTINUOUS
 10
11.464654
 20
37.964572
  0
VERTEX
  8
FOREGROUND
  6
CONTINUOUS
 10
11.404143
 20
37.977815
  0
VERTEX
  8
FOREGROUND
  6
CONTINUOUS
 10
11.353831
 20
38.019086
  0
VERTEX
  8
FOREGROUND
  6
CONTINUOUS
 10
11.323421
 20
38.090703
  0
VERTEX
  8
FOREGROUND
  6
CONTINUOUS
 10
11.318655
 20
38.119788
  0
VERTEX
  8
FOREGROUND
  6
CONTINUOUS
 10
11.315855
 20
38.148365
  0
VERTEX
  8
FOREGROUND
  6
CONTINUOUS
 10
11.314939
 20
38.176486
  0
VERTEX
  8
FOREGROUND
  6
CONTINUOUS
 10
11.335119
 20
38.309816
  0
VERTEX
  8
FOREGROUND
  6
CONTINUOUS
 10
11.389313
 20
38.439883
  0
VERTEX
  8
FOREGROUND
  6
CONTINUOUS
 10
11.468000
 20
38.573093
  0
VERTEX
  8
FOREGROUND
  6
CONTINUOUS
 10
11.546687
 20
38.439883
  0
VERTEX
  8
FOREGROUND
  6
CONTINUOUS
 10
11.600881
 20
38.309816
  0
VERTEX
  8
FOREGROUND
  6
CONTINUOUS
 10
11.621061
 20
38.176486
  0
VERTEX
  8
FOREGROUND
  6
CONTINUOUS
 10
11.620145
 20
38.148365
  0
VERTEX
  8
FOREGROUND
  6
CONTINUOUS
 10
11.617344
 20
38.119788
  0
VERTEX
  8
FOREGROUND
  6
CONTINUOUS
 10
11.612579
 20
38.090703
  0
VERTEX
  8
FOREGROUND
  6
CONTINUOUS
 10
11.581415
 20
38.018711
  0
VERTEX
  8
FOREGROUND
  6
CONTINUOUS
 10
11.529811
 20
37.978116
  0
SEQEND
  8
0
  0
SOLID
  8
FOREGROUND
 10
9.839000
 20
37.914999
 11
9.839000
 21
38.450999
 12
10.139000
 22
37.914999
 13
10.139000
 23
38.450999
  0
POLYLINE
  8
FOREGROUND
  6
CONTINUOUS
 66
     1
 40
0.042000
 41
0.042000
 70
     1
  0
VERTEX
  8
FOREGROUND
  6
CONTINUOUS
 10
9.839000
 20
37.914999
  0
VERTEX
  8
FOREGROUND
  6
CONTINUOUS
 10
9.839000
 20
38.450999
  0
VERTEX
  8
FOREGROUND
  6
CONTINUOUS
 10
10.139000
 20
38.450999
  0
VERTEX
  8
FOREGROUND
  6
CONTINUOUS
 10
10.139000
 20
37.914999
  0
SEQEND
  8
0
  0
SOLID
  8
FOREGROUND
 10
12.269730
 20
37.075793
 11
11.969730
 21
37.075793
 12
12.269730
 22
37.510537
 13
11.969730
 23
37.510537
  0
POLYLINE
  8
FOREGROUND
  6
CONTINUOUS
 66
     1
 40
0.042000
 41
0.042000
 70
     1
  0
VERTEX
  8
FOREGROUND
  6
CONTINUOUS
 10
12.269730
 20
37.075793
  0
VERTEX
  8
FOREGROUND
  6
CONTINUOUS
 10
11.969730
 20
37.075793
  0
VERTEX
  8
FOREGROUND
  6
CONTINUOUS
 10
11.969730
 20
37.510537
  0
VERTEX
  8
FOREGROUND
  6
CONTINUOUS
 10
12.269730
 20
37.510537
  0
SEQEND
  8
0
  0
SOLID
  8
FOREGROUND
 10
11.618000
 20
37.394018
 11
11.318000
 21
37.394018
 12
11.618000
 22
37.822805
 13
11.318000
 23
37.822805
  0
POLYLINE
  8
FOREGROUND
  6
CONTINUOUS
 66
     1
 40
0.042000
 41
0.042000
 70
     1
  0
VERTEX
  8
FOREGROUND
  6
CONTINUOUS
 10
11.618000
 20
37.394018
  0
VERTEX
  8
FOREGROUND
  6
CONTINUOUS
 10
11.318000
 20
37.394018
  0
VERTEX
  8
FOREGROUND
  6
CONTINUOUS
 10
11.318000
 20
37.822805
  0
VERTEX
  8
FOREGROUND
  6
CONTINUOUS
 10
11.618000
 20
37.822805
  0
SEQEND
  8
0
  0
SOLID
  8
FOREGROUND
 10
8.356000
 20
37.394018
 11
8.356000
 21
37.822805
 12
8.656000
 22
37.394018
 13
8.656000
 23
37.822805
  0
POLYLINE
  8
FOREGROUND
  6
CONTINUOUS
 66
     1
 40
0.042000
 41
0.042000
 70
     1
  0
VERTEX
  8
FOREGROUND
  6
CONTINUOUS
 10
8.356000
 20
37.394018
  0
VERTEX
  8
FOREGROUND
  6
CONTINUOUS
 10
8.356000
 20
37.822805
  0
VERTEX
  8
FOREGROUND
  6
CONTINUOUS
 10
8.656000
 20
37.822805
  0
VERTEX
  8
FOREGROUND
  6
CONTINUOUS
 10
8.656000
 20
37.394018
  0
SEQEND
  8
0
  0
SOLID
  8
FOREGROUND
 10
7.704270
 20
37.075793
 11
7.704270
 21
37.510537
 12
8.004270
 22
37.075793
 13
8.004270
 23
37.510537
  0
POLYLINE
  8
FOREGROUND
  6
CONTINUOUS
 66
     1
 40
0.042000
 41
0.042000
 70
     1
  0
VERTEX
  8
FOREGROUND
  6
CONTINUOUS
 10
7.704270
 20
37.075793
  0
VERTEX
  8
FOREGROUND
  6
CONTINUOUS
 10
7.704270
 20
37.510537
  0
VERTEX
  8
FOREGROUND
  6
CONTINUOUS
 10
8.004270
 20
37.510537
  0
VERTEX
  8
FOREGROUND
  6
CONTINUOUS
 10
8.004270
 20
37.075793
  0
SEQEND
  8
0
  0
SOLID
  8
FOREGROUND
 10
9.076365
 20
37.717442
 11
9.076365
 21
38.122405
 12
9.376365
 22
37.717442
 13
9.376365
 23
38.122405
  0
POLYLINE
  8
FOREGROUND
  6
CONTINUOUS
 66
     1
 40
0.042000
 41
0.042000
 70
     1
  0
VERTEX
  8
FOREGROUND
  6
CONTINUOUS
 10
9.076365
 20
37.717442
  0
VERTEX
  8
FOREGROUND
  6
CONTINUOUS
 10
9.076365
 20
38.122405
  0
VERTEX
  8
FOREGROUND
  6
CONTINUOUS
 10
9.376365
 20
38.122405
  0
VERTEX
  8
FOREGROUND
  6
CONTINUOUS
 10
9.376365
 20
37.717442
  0
SEQEND
  8
0
  0
SOLID
  8
FOREGROUND
 10
10.897635
 20
37.717442
 11
10.597635
 21
37.717442
 12
10.897635
 22
38.122405
 13
10.597635
 23
38.122405
  0
POLYLINE
  8
FOREGROUND
  6
CONTINUOUS
 66
     1
 40
0.042000
 41
0.042000
 70
     1
  0
VERTEX
  8
FOREGROUND
  6
CONTINUOUS
 10
10.897635
 20
37.717442
  0
VERTEX
  8
FOREGROUND
  6
CONTINUOUS
 10
10.597635
 20
37.717442
  0
VERTEX
  8
FOREGROUND
  6
CONTINUOUS
 10
10.597635
 20
38.122405
  0
VERTEX
  8
FOREGROUND
  6
CONTINUOUS
 10
10.897635
 20
38.122405
  0
SEQEND
  8
0
  0
POLYLINE
  8
FOREGROUND
  6
CONTINUOUS
 66
     1
 40
0.042000
 41
0.042000
 70
     1
  0
VERTEX
  8
FOREGROUND
  6
CONTINUOUS
 10
17.154007
 20
38.244853
  0
VERTEX
  8
FOREGROUND
  6
CONTINUOUS
 10
17.058334
 20
38.157317
  0
VERTEX
  8
FOREGROUND
  6
CONTINUOUS
 10
16.978159
 20
38.053475
  0
VERTEX
  8
FOREGROUND
  6
CONTINUOUS
 10
16.916130
 20
37.933184
  0
VERTEX
  8
FOREGROUND
  6
CONTINUOUS
 10
16.913365
 20
37.924983
  0
VERTEX
  8
FOREGROUND
  6
CONTINUOUS
 10
16.911768
 20
37.917090
  0
VERTEX
  8
FOREGROUND
  6
CONTINUOUS
 10
16.911255
 20
37.909547
  0
VERTEX
  8
FOREGROUND
  6
CONTINUOUS
 10
16.917747
 20
37.884737
  0
VERTEX
  8
FOREGROUND
  6
CONTINUOUS
 10
16.934057
 20
37.868085
  0
VERTEX
  8
FOREGROUND
  6
CONTINUOUS
 10
16.955436
 20
37.861999
  0
VERTEX
  8
FOREGROUND
  6
CONTINUOUS
 10
16.970601
 20
37.865193
  0
VERTEX
  8
FOREGROUND
  6
CONTINUOUS
 10
16.984375
 20
37.875296
  0
VERTEX
  8
FOREGROUND
  6
CONTINUOUS
 10
16.995217
 20
37.893089
  0
VERTEX
  8
FOREGROUND
  6
CONTINUOUS
 10
17.049822
 20
37.998139
  0
VERTEX
  8
FOREGROUND
  6
CONTINUOUS
 10
17.120941
 20
38.088673
  0
VERTEX
  8
FOREGROUND
  6
CONTINUOUS
 10
17.206000
 20
38.164961
  0
VERTEX
  8
FOREGROUND
  6
CONTINUOUS
 10
17.189220
 20
38.193154
  0
VERTEX
  8
FOREGROUND
  6
CONTINUOUS
 10
17.171889
 20
38.219784
  0
SEQEND
  8
0
  0
POLYLINE
  8
FOREGROUND
  6
CONTINUOUS
 66
     1
 40
0.042000
 41
0.042000
 70
     1
  0
VERTEX
  8
FOREGROUND
  6
CONTINUOUS
 10
2.845993
 20
38.244853
  0
VERTEX
  8
FOREGROUND
  6
CONTINUOUS
 10
2.828111
 20
38.219784
  0
VERTEX
  8
FOREGROUND
  6
CONTINUOUS
 10
2.810780
 20
38.193154
  0
VERTEX
  8
FOREGROUND
  6
CONTINUOUS
 10
2.794000
 20
38.164961
  0
VERTEX
  8
FOREGROUND
  6
CONTINUOUS
 10
2.879059
 20
38.088673
  0
VERTEX
  8
FOREGROUND
  6
CONTINUOUS
 10
2.950178
 20
37.998139
  0
VERTEX
  8
FOREGROUND
  6
CONTINUOUS
 10
3.004782
 20
37.893089
  0
VERTEX
  8
FOREGROUND
  6
CONTINUOUS
 10
3.015624
 20
37.875296
  0
VERTEX
  8
FOREGROUND
  6
CONTINUOUS
 10
3.029399
 20
37.865193
  0
VERTEX
  8
FOREGROUND
  6
CONTINUOUS
 10
3.044563
 20
37.861999
  0
VERTEX
  8
FOREGROUND
  6
CONTINUOUS
 10
3.065942
 20
37.868085
  0
VERTEX
  8
FOREGROUND
  6
CONTINUOUS
 10
3.082253
 20
37.884737
  0
VERTEX
  8
FOREGROUND
  6
CONTINUOUS
 10
3.088745
 20
37.909547
  0
VERTEX
  8
FOREGROUND
  6
CONTINUOUS
 10
3.088232
 20
37.917090
  0
VERTEX
  8
FOREGROUND
  6
CONTINUOUS
 10
3.086635
 20
37.924983
  0
VERTEX
  8
FOREGROUND
  6
CONTINUOUS
 10
3.083869
 20
37.933184
  0
VERTEX
  8
FOREGROUND
  6
CONTINUOUS
 10
3.021840
 20
38.053475
  0
VERTEX
  8
FOREGROUND
  6
CONTINUOUS
 10
2.941666
 20
38.157317
  0
SEQEND
  8
0
  0
POLYLINE
  8
FOREGROUND
  6
CONTINUOUS
 66
     1
 40
0.042000
 41
0.042000
 70
     1
  0
VERTEX
  8
FOREGROUND
  6
CONTINUOUS
 10
18.148000
 20
13.359479
  0
VERTEX
  8
FOREGROUND
  6
CONTINUOUS
 10
18.148000
 20
35.637429
  0
VERTEX
  8
FOREGROUND
  6
CONTINUOUS
 10
18.398275
 20
35.637429
  0
VERTEX
  8
FOREGROUND
  6
CONTINUOUS
 10
18.398275
 20
12.737000
  0
VERTEX
  8
FOREGROUND
  6
CONTINUOUS
 10
18.351854
 20
12.891107
  0
VERTEX
  8
FOREGROUND
  6
CONTINUOUS
 10
18.298536
 20
13.039645
  0
VERTEX
  8
FOREGROUND
  6
CONTINUOUS
 10
18.238100
 20
13.181055
  0
VERTEX
  8
FOREGROUND
  6
CONTINUOUS
 10
18.209401
 20
13.242238
  0
VERTEX
  8
FOREGROUND
  6
CONTINUOUS
 10
18.179368
 20
13.301638
  0
SEQEND
  8
0
  0
POLYLINE
  8
FOREGROUND
  6
CONTINUOUS
 66
     1
 40
0.042000
 41
0.042000
 70
     1
  0
VERTEX
  8
FOREGROUND
  6
CONTINUOUS
 10
1.852275
 20
13.359479
  0
VERTEX
  8
FOREGROUND
  6
CONTINUOUS
 10
1.820908
 20
13.301638
  0
VERTEX
  8
FOREGROUND
  6
CONTINUOUS
 10
1.790875
 20
13.242238
  0
VERTEX
  8
FOREGROUND
  6
CONTINUOUS
 10
1.762176
 20
13.181055
  0
VERTEX
  8
FOREGROUND
  6
CONTINUOUS
 10
1.701740
 20
13.039645
  0
VERTEX
  8
FOREGROUND
  6
CONTINUOUS
 10
1.648422
 20
12.891107
  0
VERTEX
  8
FOREGROUND
  6
CONTINUOUS
 10
1.602000
 20
12.737000
  0
VERTEX
  8
FOREGROUND
  6
CONTINUOUS
 10
1.602000
 20
35.637429
  0
VERTEX
  8
FOREGROUND
  6
CONTINUOUS
 10
1.852275
 20
35.637429
  0
SEQEND
  8
0
  0
SOLID
  8
FOREGROUND
 10
7.533471
 20
34.840481
 11
7.676565
 21
35.318378
 12
7.455503
 22
34.879006
 13
7.438075
 23
35.318378
  0
POLYLINE
  8
FOREGROUND
  6
CONTINUOUS
 66
     1
 40
0.042000
 41
0.042000
 70
     1
  0
VERTEX
  8
FOREGROUND
  6
CONTINUOUS
 10
7.533471
 20
34.840481
  0
VERTEX
  8
FOREGROUND
  6
CONTINUOUS
 10
7.676565
 20
35.318378
  0
VERTEX
  8
FOREGROUND
  6
CONTINUOUS
 10
7.438075
 20
35.318378
  0
VERTEX
  8
FOREGROUND
  6
CONTINUOUS
 10
7.455503
 20
34.879006
  0
SEQEND
  8
0
  0
SOLID
  8
FOREGROUND
 10
11.528129
 20
34.805481
 11
11.671223
 21
35.283378
 12
11.450162
 22
34.844006
 13
11.432733
 23
35.283378
  0
POLYLINE
  8
FOREGROUND
  6
CONTINUOUS
 66
     1
 40
0.042000
 41
0.042000
 70
     1
  0
VERTEX
  8
FOREGROUND
  6
CONTINUOUS
 10
11.528129
 20
34.805481
  0
VERTEX
  8
FOREGROUND
  6
CONTINUOUS
 10
11.671223
 20
35.283378
  0
VERTEX
  8
FOREGROUND
  6
CONTINUOUS
 10
11.432733
 20
35.283378
  0
VERTEX
  8
FOREGROUND
  6
CONTINUOUS
 10
11.450162
 20
34.844006
  0
SEQEND
  8
0
  0
POLYLINE
  8
FOREGROUND
  6
CONTINUOUS
 66
     1
 40
0.042000
 41
0.042000
 70
     1
  0
VERTEX
  8
FOREGROUND
  6
CONTINUOUS
 10
17.440232
 20
38.391978
  0
VERTEX
  8
FOREGROUND
  6
CONTINUOUS
 10
17.369827
 20
38.366815
  0
VERTEX
  8
FOREGROUND
  6
CONTINUOUS
 10
17.301927
 20
38.336554
  0
VERTEX
  8
FOREGROUND
  6
CONTINUOUS
 10
17.237013
 20
38.301168
  0
VERTEX
  8
FOREGROUND
  6
CONTINUOUS
 10
17.255232
 20
38.275451
  0
VERTEX
  8
FOREGROUND
  6
CONTINUOUS
 10
17.272889
 20
38.248395
  0
VERTEX
  8
FOREGROUND
  6
CONTINUOUS
 10
17.289984
 20
38.219999
  0
VERTEX
  8
FOREGROUND
  6
CONTINUOUS
 10
17.351148
 20
38.251612
  0
VERTEX
  8
FOREGROUND
  6
CONTINUOUS
 10
17.415001
 20
38.278410
  0
VERTEX
  8
FOREGROUND
  6
CONTINUOUS
 10
17.481000
 20
38.300451
  0
VERTEX
  8
FOREGROUND
  6
CONTINUOUS
 10
17.469083
 20
38.331306
  0
VERTEX
  8
FOREGROUND
  6
CONTINUOUS
 10
17.455494
 20
38.361815
  0
SEQEND
  8
0
  0
POLYLINE
  8
FOREGROUND
  6
CONTINUOUS
 66
     1
 40
0.042000
 41
0.042000
 70
     1
  0
VERTEX
  8
FOREGROUND
  6
CONTINUOUS
 10
2.559768
 20
38.391978
  0
VERTEX
  8
FOREGROUND
  6
CONTINUOUS
 10
2.544506
 20
38.361815
  0
VERTEX
  8
FOREGROUND
  6
CONTINUOUS
 10
2.530917
 20
38.331306
  0
VERTEX
  8
FOREGROUND
  6
CONTINUOUS
 10
2.519000
 20
38.300451
  0
VERTEX
  8
FOREGROUND
  6
CONTINUOUS
 10
2.584999
 20
38.278410
  0
VERTEX
  8
FOREGROUND
  6
CONTINUOUS
 10
2.648852
 20
38.251612
  0
VERTEX
  8
FOREGROUND
  6
CONTINUOUS
 10
2.710015
 20
38.219999
  0
VERTEX
  8
FOREGROUND
  6
CONTINUOUS
 10
2.727110
 20
38.248395
  0
VERTEX
  8
FOREGROUND
  6
CONTINUOUS
 10
2.744767
 20
38.275451
  0
VERTEX
  8
FOREGROUND
  6
CONTINUOUS
 10
2.762986
 20
38.301168
  0
VERTEX
  8
FOREGROUND
  6
CONTINUOUS
 10
2.698073
 20
38.336554
  0
VERTEX
  8
FOREGROUND
  6
CONTINUOUS
 10
2.630173
 20
38.366815
  0
SEQEND
  8
0
  0
POLYLINE
  8
FOREGROUND
  6
CONTINUOUS
 66
     1
 40
0.042000
 41
0.042000
 70
     1
  0
VERTEX
  8
FOREGROUND
  6
CONTINUOUS
 10
3.039339
 20
39.444896
  0
VERTEX
  8
FOREGROUND
  6
CONTINUOUS
 10
2.995294
 20
39.443163
  0
VERTEX
  8
FOREGROUND
  6
CONTINUOUS
 10
2.951515
 20
39.439162
  0
VERTEX
  8
FOREGROUND
  6
CONTINUOUS
 10
2.908000
 20
39.432893
  0
VERTEX
  8
FOREGROUND
  6
CONTINUOUS
 10
2.928425
 20
39.383095
  0
VERTEX
  8
FOREGROUND
  6
CONTINUOUS
 10
2.948046
 20
39.333059
  0
VERTEX
  8
FOREGROUND
  6
CONTINUOUS
 10
2.967050
 20
39.282860
  0
VERTEX
  8
FOREGROUND
  6
CONTINUOUS
 10
3.008245
 20
39.150999
  0
VERTEX
  8
FOREGROUND
  6
CONTINUOUS
 10
3.038544
 20
39.158277
  0
VERTEX
  8
FOREGROUND
  6
CONTINUOUS
 10
3.068996
 20
39.164380
  0
VERTEX
  8
FOREGROUND
  6
CONTINUOUS
 10
3.099600
 20
39.169308
  0
VERTEX
  8
FOREGROUND
  6
CONTINUOUS
 10
3.083178
 20
39.224722
  0
VERTEX
  8
FOREGROUND
  6
CONTINUOUS
 10
3.066542
 20
39.297484
  0
VERTEX
  8
FOREGROUND
  6
CONTINUOUS
 10
3.051768
 20
39.370822
  0
SEQEND
  8
0
  0
POLYLINE
  8
FOREGROUND
  6
CONTINUOUS
 66
     1
 40
0.042000
 41
0.042000
 70
     1
  0
VERTEX
  8
FOREGROUND
  6
CONTINUOUS
 10
16.960661
 20
39.444896
  0
VERTEX
  8
FOREGROUND
  6
CONTINUOUS
 10
16.948232
 20
39.370822
  0
VERTEX
  8
FOREGROUND
  6
CONTINUOUS
 10
16.933458
 20
39.297484
  0
VERTEX
  8
FOREGROUND
  6
CONTINUOUS
 10
16.916822
 20
39.224722
  0
VERTEX
  8
FOREGROUND
  6
CONTINUOUS
 10
16.900399
 20
39.169308
  0
VERTEX
  8
FOREGROUND
  6
CONTINUOUS
 10
16.931004
 20
39.164380
  0
VERTEX
  8
FOREGROUND
  6
CONTINUOUS
 10
16.961455
 20
39.158277
  0
VERTEX
  8
FOREGROUND
  6
CONTINUOUS
 10
16.991754
 20
39.150999
  0
VERTEX
  8
FOREGROUND
  6
CONTINUOUS
 10
17.032950
 20
39.282860
  0
VERTEX
  8
FOREGROUND
  6
CONTINUOUS
 10
17.051954
 20
39.333059
  0
VERTEX
  8
FOREGROUND
  6
CONTINUOUS
 10
17.071575
 20
39.383095
  0
VERTEX
  8
FOREGROUND
  6
CONTINUOUS
 10
17.092000
 20
39.432893
  0
VERTEX
  8
FOREGROUND
  6
CONTINUOUS
 10
17.048485
 20
39.439162
  0
VERTEX
  8
FOREGROUND
  6
CONTINUOUS
 10
17.004705
 20
39.443163
  0
SEQEND
  8
0
  0
POLYLINE
  8
FOREGROUND
  6
CONTINUOUS
 66
     1
 40
0.042000
 41
0.042000
 70
     1
  0
VERTEX
  8
FOREGROUND
  6
CONTINUOUS
 10
15.642309
 20
35.638340
  0
VERTEX
  8
FOREGROUND
  6
CONTINUOUS
 10
15.644309
 20
35.638340
  0
VERTEX
  8
FOREGROUND
  6
CONTINUOUS
 10
15.651939
 20
35.638007
  0
VERTEX
  8
FOREGROUND
  6
CONTINUOUS
 10
15.658680
 20
35.637007
  0
VERTEX
  8
FOREGROUND
  6
CONTINUOUS
 10
15.664309
 20
35.635340
  0
SEQEND
  8
0
  0
POLYLINE
  8
FOREGROUND
  6
CONTINUOUS
 66
     1
 40
0.042000
 41
0.042000
 70
     1
  0
VERTEX
  8
FOREGROUND
  6
CONTINUOUS
 10
10.000001
 20
0.000000
  0
VERTEX
  8
FOREGROUND
  6
CONTINUOUS
 10
0.000000
 20
0.000000
  0
VERTEX
  8
FOREGROUND
  6
CONTINUOUS
 10
0.000000
 20
35.636701
  0
VERTEX
  8
FOREGROUND
  6
CONTINUOUS
 10
1.501653
 20
35.636701
  0
VERTEX
  8
FOREGROUND
  6
CONTINUOUS
 10
1.501653
 20
12.226059
  0
VERTEX
  8
FOREGROUND
  6
CONTINUOUS
 10
1.497944
 20
12.195727
  0
VERTEX
  8
FOREGROUND
  6
CONTINUOUS
 10
1.494681
 20
12.165172
  0
VERTEX
  8
FOREGROUND
  6
CONTINUOUS
 10
1.491642
 20
12.134841
  0
VERTEX
  8
FOREGROUND
  6
CONTINUOUS
 10
1.480628
 20
12.025581
  0
VERTEX
  8
FOREGROUND
  6
CONTINUOUS
 10
1.621783
 20
12.024580
  0
VERTEX
  8
FOREGROUND
  6
CONTINUOUS
 10
1.665535
 20
12.024951
  0
VERTEX
  8
FOREGROUND
  6
CONTINUOUS
 10
1.708842
 20
12.026213
  0
VERTEX
  8
FOREGROUND
  6
CONTINUOUS
 10
1.751927
 20
12.028589
  0
VERTEX
  8
FOREGROUND
  6
CONTINUOUS
 10
10.000001
 20
12.028589
  0
VERTEX
  8
FOREGROUND
  6
CONTINUOUS
 10
18.248072
 20
12.028589
  0
VERTEX
  8
FOREGROUND
  6
CONTINUOUS
 10
18.291157
 20
12.026213
  0
VERTEX
  8
FOREGROUND
  6
CONTINUOUS
 10
18.334464
 20
12.024951
  0
VERTEX
  8
FOREGROUND
  6
CONTINUOUS
 10
18.378216
 20
12.024580
  0
VERTEX
  8
FOREGROUND
  6
CONTINUOUS
 10
18.519371
 20
12.025581
  0
VERTEX
  8
FOREGROUND
  6
CONTINUOUS
 10
18.508357
 20
12.134841
  0
VERTEX
  8
FOREGROUND
  6
CONTINUOUS
 10
18.505318
 20
12.165172
  0
VERTEX
  8
FOREGROUND
  6
CONTINUOUS
 10
18.502055
 20
12.195727
  0
VERTEX
  8
FOREGROUND
  6
CONTINUOUS
 10
18.498348
 20
12.226059
  0
VERTEX
  8
FOREGROUND
  6
CONTINUOUS
 10
18.498348
 20
35.636701
  0
VERTEX
  8
FOREGROUND
  6
CONTINUOUS
 10
19.999999
 20
35.636701
  0
VERTEX
  8
FOREGROUND
  6
CONTINUOUS
 10
19.999999
 20
0.000000
  0
SEQEND
  8
0
  0
ENDSEC
  0
EOF
