  0
SECTION
  2
ENTITIES
  0
POLYLINE
  8
EGA2009.PLT
 62
7
 66
1
 70
1
  0
VERTEX
  8
EGA2009.PLT
 62
7
 10
3.65300000
 20
0.00000000
  0
VERTEX
  8
EGA2009.PLT
 62
7
 10
19.57800000
 20
0.00000000
  0
VERTEX
  8
EGA2009.PLT
 62
7
 10
19.80371790
 20
1.00659009
  0
VERTEX
  8
EGA2009.PLT
 62
7
 10
20.02230865
 20
2.00709668
  0
VERTEX
  8
EGA2009.PLT
 62
7
 10
20.23386532
 20
3.00126489
  0
VERTEX
  8
EGA2009.PLT
 62
7
 10
20.43848096
 20
3.98883984
  0
VERTEX
  8
EGA2009.PLT
 62
7
 10
20.63624863
 20
4.96956665
  0
VERTEX
  8
EGA2009.PLT
 62
7
 10
20.82726141
 20
5.94319043
  0
VERTEX
  8
EGA2009.PLT
 62
7
 10
21.01161236
 20
6.90945630
  0
VERTEX
  8
EGA2009.PLT
 62
7
 10
21.18939453
 20
7.86810938
  0
VERTEX
  8
EGA2009.PLT
 62
7
 10
21.36070100
 20
8.81889478
  0
VERTEX
  8
EGA2009.PLT
 62
7
 10
21.52562482
 20
9.76155762
  0
VERTEX
  8
EGA2009.PLT
 62
7
 10
21.68425906
 20
10.69584302
  0
VERTEX
  8
EGA2009.PLT
 62
7
 10
21.83669678
 20
11.62149609
  0
VERTEX
  8
EGA2009.PLT
 62
7
 10
21.98303104
 20
12.53826196
  0
VERTEX
  8
EGA2009.PLT
 62
7
 10
22.12335492
 20
13.44588574
  0
VERTEX
  8
EGA2009.PLT
 62
7
 10
22.25776147
 20
14.34411255
  0
VERTEX
  8
EGA2009.PLT
 62
7
 10
22.38634375
 20
15.23268750
  0
VERTEX
  8
EGA2009.PLT
 62
7
 10
22.50919483
 20
16.11135571
  0
VERTEX
  8
EGA2009.PLT
 62
7
 10
22.62640778
 20
16.97986230
  0
VERTEX
  8
EGA2009.PLT
 62
7
 10
22.73807565
 20
17.83795239
  0
VERTEX
  8
EGA2009.PLT
 62
7
 10
22.84429150
 20
18.68537109
  0
VERTEX
  8
EGA2009.PLT
 62
7
 10
22.94514841
 20
19.52186353
  0
VERTEX
  8
EGA2009.PLT
 62
7
 10
23.04073944
 20
20.34717480
  0
VERTEX
  8
EGA2009.PLT
 62
7
 10
23.13115765
 20
21.16105005
  0
VERTEX
  8
EGA2009.PLT
 62
7
 10
23.21649609
 20
21.96323437
  0
VERTEX
  8
EGA2009.PLT
 62
7
 10
23.29684785
 20
22.75347290
  0
VERTEX
  8
EGA2009.PLT
 62
7
 10
23.37230597
 20
23.53151074
  0
VERTEX
  8
EGA2009.PLT
 62
7
 10
23.44296352
 20
24.29709302
  0
VERTEX
  8
EGA2009.PLT
 62
7
 10
23.50891357
 20
25.04996484
  0
VERTEX
  8
EGA2009.PLT
 62
7
 10
23.57024918
 20
25.78987134
  0
VERTEX
  8
EGA2009.PLT
 62
7
 10
23.62706342
 20
26.51655762
  0
VERTEX
  8
EGA2009.PLT
 62
7
 10
23.67944933
 20
27.22976880
  0
VERTEX
  8
EGA2009.PLT
 62
7
 10
23.72750000
 20
27.92925000
  0
VERTEX
  8
EGA2009.PLT
 62
7
 10
23.77130848
 20
28.61474634
  0
VERTEX
  8
EGA2009.PLT
 62
7
 10
23.81096783
 20
29.28600293
  0
VERTEX
  8
EGA2009.PLT
 62
7
 10
23.84657113
 20
29.94276489
  0
VERTEX
  8
EGA2009.PLT
 62
7
 10
23.87821143
 20
30.58477734
  0
VERTEX
  8
EGA2009.PLT
 62
7
 10
23.90598179
 20
31.21178540
  0
VERTEX
  8
EGA2009.PLT
 62
7
 10
23.92997528
 20
31.82353418
  0
VERTEX
  8
EGA2009.PLT
 62
7
 10
23.95028497
 20
32.41976880
  0
VERTEX
  8
EGA2009.PLT
 62
7
 10
23.96700391
 20
33.00023437
  0
VERTEX
  8
EGA2009.PLT
 62
7
 10
23.98022517
 20
33.56467603
  0
VERTEX
  8
EGA2009.PLT
 62
7
 10
23.99004181
 20
34.11283887
  0
VERTEX
  8
EGA2009.PLT
 62
7
 10
23.99654690
 20
34.64446802
  0
VERTEX
  8
EGA2009.PLT
 62
7
 10
23.99983350
 20
35.15930859
  0
VERTEX
  8
EGA2009.PLT
 62
7
 10
23.99999467
 20
35.65710571
  0
VERTEX
  8
EGA2009.PLT
 62
7
 10
23.99712347
 20
36.13760449
  0
VERTEX
  8
EGA2009.PLT
 62
7
 10
23.99131298
 20
36.60055005
  0
VERTEX
  8
EGA2009.PLT
 62
7
 10
23.98265625
 20
37.04568750
  0
VERTEX
  8
EGA2009.PLT
 62
7
 10
23.97124635
 20
37.47276196
  0
VERTEX
  8
EGA2009.PLT
 62
7
 10
23.95717633
 20
37.88151855
  0
VERTEX
  8
EGA2009.PLT
 62
7
 10
23.94053927
 20
38.27170239
  0
VERTEX
  8
EGA2009.PLT
 62
7
 10
23.92142822
 20
38.64305859
  0
VERTEX
  8
EGA2009.PLT
 62
7
 10
23.89993626
 20
38.99533228
  0
VERTEX
  8
EGA2009.PLT
 62
7
 10
23.87615643
 20
39.32826855
  0
VERTEX
  8
EGA2009.PLT
 62
7
 10
23.85018182
 20
39.64161255
  0
VERTEX
  8
EGA2009.PLT
 62
7
 10
23.82210547
 20
39.93510938
  0
VERTEX
  8
EGA2009.PLT
 62
7
 10
23.79202045
 20
40.20850415
  0
VERTEX
  8
EGA2009.PLT
 62
7
 10
23.76001984
 20
40.46154199
  0
VERTEX
  8
EGA2009.PLT
 62
7
 10
23.72619668
 20
40.69396802
  0
VERTEX
  8
EGA2009.PLT
 62
7
 10
23.69064404
 20
40.90552734
  0
VERTEX
  8
EGA2009.PLT
 62
7
 10
23.65345499
 20
41.09596509
  0
VERTEX
  8
EGA2009.PLT
 62
7
 10
23.61472260
 20
41.26502637
  0
VERTEX
  8
EGA2009.PLT
 62
7
 10
23.57453991
 20
41.41245630
  0
VERTEX
  8
EGA2009.PLT
 62
7
 10
23.53300000
 20
41.53800000
  0
VERTEX
  8
EGA2009.PLT
 62
7
 10
23.46492072
 20
41.71683705
  0
VERTEX
  8
EGA2009.PLT
 62
7
 10
23.39076123
 20
41.89979407
  0
VERTEX
  8
EGA2009.PLT
 62
7
 10
23.31059222
 20
42.08669609
  0
VERTEX
  8
EGA2009.PLT
 62
7
 10
23.22448437
 20
42.27736816
  0
VERTEX
  8
EGA2009.PLT
 62
7
 10
23.13250836
 20
42.47163533
  0
VERTEX
  8
EGA2009.PLT
 62
7
 10
23.03473486
 20
42.66932263
  0
VERTEX
  8
EGA2009.PLT
 62
7
 10
22.93123456
 20
42.87025511
  0
VERTEX
  8
EGA2009.PLT
 62
7
 10
22.82207813
 20
43.07425781
  0
VERTEX
  8
EGA2009.PLT
 62
7
 10
22.70733624
 20
43.28115578
  0
VERTEX
  8
EGA2009.PLT
 62
7
 10
22.58707959
 20
43.49077405
  0
VERTEX
  8
EGA2009.PLT
 62
7
 10
22.46137885
 20
43.70293767
  0
VERTEX
  8
EGA2009.PLT
 62
7
 10
22.33030469
 20
43.91747168
  0
VERTEX
  8
EGA2009.PLT
 62
7
 10
22.19392780
 20
44.13420113
  0
VERTEX
  8
EGA2009.PLT
 62
7
 10
22.05231885
 20
44.35295105
  0
VERTEX
  8
EGA2009.PLT
 62
7
 10
21.90554852
 20
44.57354649
  0
VERTEX
  8
EGA2009.PLT
 62
7
 10
21.75368750
 20
44.79581250
  0
VERTEX
  8
EGA2009.PLT
 62
7
 10
21.59680646
 20
45.01957411
  0
VERTEX
  8
EGA2009.PLT
 62
7
 10
21.43497607
 20
45.24465637
  0
VERTEX
  8
EGA2009.PLT
 62
7
 10
21.26826703
 20
45.47088432
  0
VERTEX
  8
EGA2009.PLT
 62
7
 10
21.09675000
 20
45.69808301
  0
VERTEX
  8
EGA2009.PLT
 62
7
 10
20.92049567
 20
45.92607747
  0
VERTEX
  8
EGA2009.PLT
 62
7
 10
20.73957471
 20
46.15469275
  0
VERTEX
  8
EGA2009.PLT
 62
7
 10
20.55405780
 20
46.38375389
  0
VERTEX
  8
EGA2009.PLT
 62
7
 10
20.36401563
 20
46.61308594
  0
VERTEX
  8
EGA2009.PLT
 62
7
 10
20.16951886
 20
46.84251393
  0
VERTEX
  8
EGA2009.PLT
 62
7
 10
19.97063818
 20
47.07186292
  0
VERTEX
  8
EGA2009.PLT
 62
7
 10
19.76744427
 20
47.30095793
  0
VERTEX
  8
EGA2009.PLT
 62
7
 10
19.56000781
 20
47.52962402
  0
VERTEX
  8
EGA2009.PLT
 62
7
 10
19.34839948
 20
47.75768623
  0
VERTEX
  8
EGA2009.PLT
 62
7
 10
19.13268994
 20
47.98496960
  0
VERTEX
  8
EGA2009.PLT
 62
7
 10
18.91294989
 20
48.21129918
  0
VERTEX
  8
EGA2009.PLT
 62
7
 10
18.68925000
 20
48.43650000
  0
VERTEX
  8
EGA2009.PLT
 62
7
 10
18.46166095
 20
48.66039711
  0
VERTEX
  8
EGA2009.PLT
 62
7
 10
18.23025342
 20
48.88281555
  0
VERTEX
  8
EGA2009.PLT
 62
7
 10
17.99509808
 20
49.10358037
  0
VERTEX
  8
EGA2009.PLT
 62
7
 10
17.75626563
 20
49.32251660
  0
VERTEX
  8
EGA2009.PLT
 62
7
 10
17.51382672
 20
49.53944930
  0
VERTEX
  8
EGA2009.PLT
 62
7
 10
17.26785205
 20
49.75420349
  0
VERTEX
  8
EGA2009.PLT
 62
7
 10
17.01841229
 20
49.96660423
  0
VERTEX
  8
EGA2009.PLT
 62
7
 10
16.76557813
 20
50.17647656
  0
VERTEX
  8
EGA2009.PLT
 62
7
 10
16.50942023
 20
50.38364552
  0
VERTEX
  8
EGA2009.PLT
 62
7
 10
16.25000928
 20
50.58793616
  0
VERTEX
  8
EGA2009.PLT
 62
7
 10
15.98741595
 20
50.78917351
  0
VERTEX
  8
EGA2009.PLT
 62
7
 10
15.72171094
 20
50.98718262
  0
VERTEX
  8
EGA2009.PLT
 62
7
 10
15.45296490
 20
51.18178853
  0
VERTEX
  8
EGA2009.PLT
 62
7
 10
15.18124854
 20
51.37281628
  0
VERTEX
  8
EGA2009.PLT
 62
7
 10
14.90663251
 20
51.56009093
  0
VERTEX
  8
EGA2009.PLT
 62
7
 10
14.62918750
 20
51.74343750
  0
VERTEX
  8
EGA2009.PLT
 62
7
 10
14.34898419
 20
51.92268105
  0
VERTEX
  8
EGA2009.PLT
 62
7
 10
14.06609326
 20
52.09764661
  0
VERTEX
  8
EGA2009.PLT
 62
7
 10
13.78058539
 20
52.26815923
  0
VERTEX
  8
EGA2009.PLT
 62
7
 10
13.49253125
 20
52.43404395
  0
VERTEX
  8
EGA2009.PLT
 62
7
 10
13.20200153
 20
52.59512581
  0
VERTEX
  8
EGA2009.PLT
 62
7
 10
12.90906689
 20
52.75122986
  0
VERTEX
  8
EGA2009.PLT
 62
7
 10
12.61379803
 20
52.90218114
  0
VERTEX
  8
EGA2009.PLT
 62
7
 10
12.31626563
 20
53.04780469
  0
VERTEX
  8
EGA2009.PLT
 62
7
 10
12.01654034
 20
53.18792555
  0
VERTEX
  8
EGA2009.PLT
 62
7
 10
11.71469287
 20
53.32236877
  0
VERTEX
  8
EGA2009.PLT
 62
7
 10
11.41079388
 20
53.45095940
  0
VERTEX
  8
EGA2009.PLT
 62
7
 10
11.10491406
 20
53.57352246
  0
VERTEX
  8
EGA2009.PLT
 62
7
 10
10.79712408
 20
53.68988301
  0
VERTEX
  8
EGA2009.PLT
 62
7
 10
10.48749463
 20
53.79986609
  0
VERTEX
  8
EGA2009.PLT
 62
7
 10
10.17609637
 20
53.90329674
  0
VERTEX
  8
EGA2009.PLT
 62
7
 10
9.86300000
 20
54.00000000
  0
VERTEX
  8
EGA2009.PLT
 62
7
 10
9.69067268
 20
53.88805524
  0
VERTEX
  8
EGA2009.PLT
 62
7
 10
9.51843805
 20
53.77478665
  0
VERTEX
  8
EGA2009.PLT
 62
7
 10
9.34633901
 20
53.66019902
  0
VERTEX
  8
EGA2009.PLT
 62
7
 10
9.17441846
 20
53.54429712
  0
VERTEX
  8
EGA2009.PLT
 62
7
 10
9.00271928
 20
53.42708574
  0
VERTEX
  8
EGA2009.PLT
 62
7
 10
8.83128436
 20
53.30856967
  0
VERTEX
  8
EGA2009.PLT
 62
7
 10
8.66015661
 20
53.18875369
  0
VERTEX
  8
EGA2009.PLT
 62
7
 10
8.48937891
 20
53.06764258
  0
VERTEX
  8
EGA2009.PLT
 62
7
 10
8.31899415
 20
52.94524112
  0
VERTEX
  8
EGA2009.PLT
 62
7
 10
8.14904523
 20
52.82155411
  0
VERTEX
  8
EGA2009.PLT
 62
7
 10
7.97957504
 20
52.69658632
  0
VERTEX
  8
EGA2009.PLT
 62
7
 10
7.81062646
 20
52.57034253
  0
VERTEX
  8
EGA2009.PLT
 62
7
 10
7.64224241
 20
52.44282753
  0
VERTEX
  8
EGA2009.PLT
 62
7
 10
7.47446576
 20
52.31404611
  0
VERTEX
  8
EGA2009.PLT
 62
7
 10
7.30733941
 20
52.18400305
  0
VERTEX
  8
EGA2009.PLT
 62
7
 10
7.14090625
 20
52.05270313
  0
VERTEX
  8
EGA2009.PLT
 62
7
 10
6.97520918
 20
51.92015113
  0
VERTEX
  8
EGA2009.PLT
 62
7
 10
6.81029108
 20
51.78635184
  0
VERTEX
  8
EGA2009.PLT
 62
7
 10
6.64619485
 20
51.65131004
  0
VERTEX
  8
EGA2009.PLT
 62
7
 10
6.48296338
 20
51.51503052
  0
VERTEX
  8
EGA2009.PLT
 62
7
 10
6.32063956
 20
51.37751805
  0
VERTEX
  8
EGA2009.PLT
 62
7
 10
6.15926630
 20
51.23877744
  0
VERTEX
  8
EGA2009.PLT
 62
7
 10
5.99888647
 20
51.09881344
  0
VERTEX
  8
EGA2009.PLT
 62
7
 10
5.83954297
 20
50.95763086
  0
VERTEX
  8
EGA2009.PLT
 62
7
 10
5.68127869
 20
50.81523447
  0
VERTEX
  8
EGA2009.PLT
 62
7
 10
5.52413654
 20
50.67162906
  0
VERTEX
  8
EGA2009.PLT
 62
7
 10
5.36815939
 20
50.52681941
  0
VERTEX
  8
EGA2009.PLT
 62
7
 10
5.21339014
 20
50.38081030
  0
VERTEX
  8
EGA2009.PLT
 62
7
 10
5.05987168
 20
50.23360653
  0
VERTEX
  8
EGA2009.PLT
 62
7
 10
4.90764691
 20
50.08521286
  0
VERTEX
  8
EGA2009.PLT
 62
7
 10
4.75675872
 20
49.93563409
  0
VERTEX
  8
EGA2009.PLT
 62
7
 10
4.60725000
 20
49.78487500
  0
VERTEX
  8
EGA2009.PLT
 62
7
 10
4.45916364
 20
49.63294037
  0
VERTEX
  8
EGA2009.PLT
 62
7
 10
4.31254254
 20
49.47983499
  0
VERTEX
  8
EGA2009.PLT
 62
7
 10
4.16742959
 20
49.32556364
  0
VERTEX
  8
EGA2009.PLT
 62
7
 10
4.02386768
 20
49.17013110
  0
VERTEX
  8
EGA2009.PLT
 62
7
 10
3.88189970
 20
49.01354216
  0
VERTEX
  8
EGA2009.PLT
 62
7
 10
3.74156854
 20
48.85580161
  0
VERTEX
  8
EGA2009.PLT
 62
7
 10
3.60291711
 20
48.69691421
  0
VERTEX
  8
EGA2009.PLT
 62
7
 10
3.46598828
 20
48.53688477
  0
VERTEX
  8
EGA2009.PLT
 62
7
 10
3.33082496
 20
48.37571805
  0
VERTEX
  8
EGA2009.PLT
 62
7
 10
3.19747003
 20
48.21341885
  0
VERTEX
  8
EGA2009.PLT
 62
7
 10
3.06596639
 20
48.04999195
  0
VERTEX
  8
EGA2009.PLT
 62
7
 10
2.93635693
 20
47.88544214
  0
VERTEX
  8
EGA2009.PLT
 62
7
 10
2.80868455
 20
47.71977419
  0
VERTEX
  8
EGA2009.PLT
 62
7
 10
2.68299213
 20
47.55299289
  0
VERTEX
  8
EGA2009.PLT
 62
7
 10
2.55932256
 20
47.38510302
  0
VERTEX
  8
EGA2009.PLT
 62
7
 10
2.43771875
 20
47.21610938
  0
VERTEX
  8
EGA2009.PLT
 62
7
 10
2.31822358
 20
47.04601673
  0
VERTEX
  8
EGA2009.PLT
 62
7
 10
2.20087994
 20
46.87482986
  0
VERTEX
  8
EGA2009.PLT
 62
7
 10
2.08573074
 20
46.70255357
  0
VERTEX
  8
EGA2009.PLT
 62
7
 10
1.97281885
 20
46.52919263
  0
VERTEX
  8
EGA2009.PLT
 62
7
 10
1.86218717
 20
46.35475182
  0
VERTEX
  8
EGA2009.PLT
 62
7
 10
1.75387860
 20
46.17923593
  0
VERTEX
  8
EGA2009.PLT
 62
7
 10
1.64793603
 20
46.00264975
  0
VERTEX
  8
EGA2009.PLT
 62
7
 10
1.54440234
 20
45.82499805
  0
VERTEX
  8
EGA2009.PLT
 62
7
 10
1.44332044
 20
45.64628562
  0
VERTEX
  8
EGA2009.PLT
 62
7
 10
1.34473322
 20
45.46651724
  0
VERTEX
  8
EGA2009.PLT
 62
7
 10
1.24868356
 20
45.28569770
  0
VERTEX
  8
EGA2009.PLT
 62
7
 10
1.15521436
 20
45.10383179
  0
VERTEX
  8
EGA2009.PLT
 62
7
 10
1.06436851
 20
44.92092427
  0
VERTEX
  8
EGA2009.PLT
 62
7
 10
0.97618890
 20
44.73697995
  0
VERTEX
  8
EGA2009.PLT
 62
7
 10
0.89071844
 20
44.55200360
  0
VERTEX
  8
EGA2009.PLT
 62
7
 10
0.80800000
 20
44.36600000
  0
VERTEX
  8
EGA2009.PLT
 62
7
 10
0.76577192
 20
44.26366877
  0
VERTEX
  8
EGA2009.PLT
 62
7
 10
0.72472566
 20
44.15319638
  0
VERTEX
  8
EGA2009.PLT
 62
7
 10
0.68485725
 20
44.03468508
  0
VERTEX
  8
EGA2009.PLT
 62
7
 10
0.64616272
 20
43.90823709
  0
VERTEX
  8
EGA2009.PLT
 62
7
 10
0.60863809
 20
43.77395468
  0
VERTEX
  8
EGA2009.PLT
 62
7
 10
0.57227940
 20
43.63194007
  0
VERTEX
  8
EGA2009.PLT
 62
7
 10
0.53708268
 20
43.48229553
  0
VERTEX
  8
EGA2009.PLT
 62
7
 10
0.50304395
 20
43.32512329
  0
VERTEX
  8
EGA2009.PLT
 62
7
 10
0.47015924
 20
43.16052560
  0
VERTEX
  8
EGA2009.PLT
 62
7
 10
0.43842458
 20
42.98860469
  0
VERTEX
  8
EGA2009.PLT
 62
7
 10
0.40783600
 20
42.80946283
  0
VERTEX
  8
EGA2009.PLT
 62
7
 10
0.37838953
 20
42.62320224
  0
VERTEX
  8
EGA2009.PLT
 62
7
 10
0.35008119
 20
42.42992518
  0
VERTEX
  8
EGA2009.PLT
 62
7
 10
0.32290703
 20
42.22973388
  0
VERTEX
  8
EGA2009.PLT
 62
7
 10
0.29686306
 20
42.02273060
  0
VERTEX
  8
EGA2009.PLT
 62
7
 10
0.27194531
 20
41.80901758
  0
VERTEX
  8
EGA2009.PLT
 62
7
 10
0.24814982
 20
41.58869706
  0
VERTEX
  8
EGA2009.PLT
 62
7
 10
0.22547261
 20
41.36187128
  0
VERTEX
  8
EGA2009.PLT
 62
7
 10
0.20390971
 20
41.12864250
  0
VERTEX
  8
EGA2009.PLT
 62
7
 10
0.18345715
 20
40.88911295
  0
VERTEX
  8
EGA2009.PLT
 62
7
 10
0.16411096
 20
40.64338487
  0
VERTEX
  8
EGA2009.PLT
 62
7
 10
0.14586717
 20
40.39156053
  0
VERTEX
  8
EGA2009.PLT
 62
7
 10
0.12872181
 20
40.13374215
  0
VERTEX
  8
EGA2009.PLT
 62
7
 10
0.11267090
 20
39.87003198
  0
VERTEX
  8
EGA2009.PLT
 62
7
 10
.09771047
 20
39.60053227
  0
VERTEX
  8
EGA2009.PLT
 62
7
 10
.08383656
 20
39.32534526
  0
VERTEX
  8
EGA2009.PLT
 62
7
 10
.07104519
 20
39.04457320
  0
VERTEX
  8
EGA2009.PLT
 62
7
 10
.05933240
 20
38.75831833
  0
VERTEX
  8
EGA2009.PLT
 62
7
 10
.04869420
 20
38.46668289
  0
VERTEX
  8
EGA2009.PLT
 62
7
 10
.03912663
 20
38.16976913
  0
VERTEX
  8
EGA2009.PLT
 62
7
 10
.03062572
 20
37.86767929
  0
VERTEX
  8
EGA2009.PLT
 62
7
 10
.02318750
 20
37.56051563
  0
VERTEX
  8
EGA2009.PLT
 62
7
 10
.01680799
 20
37.24838037
  0
VERTEX
  8
EGA2009.PLT
 62
7
 10
.01148323
 20
36.93137577
  0
VERTEX
  8
EGA2009.PLT
 62
7
 10
.00720924
 20
36.60960407
  0
VERTEX
  8
EGA2009.PLT
 62
7
 10
.00398206
 20
36.28316751
  0
VERTEX
  8
EGA2009.PLT
 62
7
 10
.00179770
 20
35.95216834
  0
VERTEX
  8
EGA2009.PLT
 62
7
 10
.00065221
 20
35.61670881
  0
VERTEX
  8
EGA2009.PLT
 62
7
 10
.00054160
 20
35.27689116
  0
VERTEX
  8
EGA2009.PLT
 62
7
 10
.00146191
 20
34.93281763
  0
VERTEX
  8
EGA2009.PLT
 62
7
 10
.00340917
 20
34.58459046
  0
VERTEX
  8
EGA2009.PLT
 62
7
 10
.00637941
 20
34.23231191
  0
VERTEX
  8
EGA2009.PLT
 62
7
 10
.01036865
 20
33.87608421
  0
VERTEX
  8
EGA2009.PLT
 62
7
 10
.01537292
 20
33.51600961
  0
VERTEX
  8
EGA2009.PLT
 62
7
 10
.02138826
 20
33.15219036
  0
VERTEX
  8
EGA2009.PLT
 62
7
 10
.02841069
 20
32.78472869
  0
VERTEX
  8
EGA2009.PLT
 62
7
 10
.03643624
 20
32.41372686
  0
VERTEX
  8
EGA2009.PLT
 62
7
 10
.04546094
 20
32.03928711
  0
VERTEX
  8
EGA2009.PLT
 62
7
 10
.05548081
 20
31.66151168
  0
VERTEX
  8
EGA2009.PLT
 62
7
 10
.06649190
 20
31.28050281
  0
VERTEX
  8
EGA2009.PLT
 62
7
 10
.07849022
 20
30.89636276
  0
VERTEX
  8
EGA2009.PLT
 62
7
 10
.09147180
 20
30.50919376
  0
VERTEX
  8
EGA2009.PLT
 62
7
 10
0.10543268
 20
30.11909806
  0
VERTEX
  8
EGA2009.PLT
 62
7
 10
0.12036888
 20
29.72617790
  0
VERTEX
  8
EGA2009.PLT
 62
7
 10
0.13627643
 20
29.33053553
  0
VERTEX
  8
EGA2009.PLT
 62
7
 10
0.15315137
 20
28.93227319
  0
VERTEX
  8
EGA2009.PLT
 62
7
 10
0.17098971
 20
28.53149313
  0
VERTEX
  8
EGA2009.PLT
 62
7
 10
0.18978749
 20
28.12829760
  0
VERTEX
  8
EGA2009.PLT
 62
7
 10
0.20954074
 20
27.72278882
  0
VERTEX
  8
EGA2009.PLT
 62
7
 10
0.23024548
 20
27.31506906
  0
VERTEX
  8
EGA2009.PLT
 62
7
 10
0.25189775
 20
26.90524055
  0
VERTEX
  8
EGA2009.PLT
 62
7
 10
0.27449358
 20
26.49340554
  0
VERTEX
  8
EGA2009.PLT
 62
7
 10
0.29802898
 20
26.07966628
  0
VERTEX
  8
EGA2009.PLT
 62
7
 10
0.32250000
 20
25.66412500
  0
VERTEX
  8
EGA2009.PLT
 62
7
 10
0.34790266
 20
25.24688395
  0
VERTEX
  8
EGA2009.PLT
 62
7
 10
0.37423299
 20
24.82804538
  0
VERTEX
  8
EGA2009.PLT
 62
7
 10
0.40148701
 20
24.40771153
  0
VERTEX
  8
EGA2009.PLT
 62
7
 10
0.42966077
 20
23.98598465
  0
VERTEX
  8
EGA2009.PLT
 62
7
 10
0.45875028
 20
23.56296697
  0
VERTEX
  8
EGA2009.PLT
 62
7
 10
0.48875157
 20
23.13876075
  0
VERTEX
  8
EGA2009.PLT
 62
7
 10
0.51966068
 20
22.71346823
  0
VERTEX
  8
EGA2009.PLT
 62
7
 10
0.55147363
 20
22.28719165
  0
VERTEX
  8
EGA2009.PLT
 62
7
 10
0.58418646
 20
21.86003326
  0
VERTEX
  8
EGA2009.PLT
 62
7
 10
0.61779518
 20
21.43209529
  0
VERTEX
  8
EGA2009.PLT
 62
7
 10
0.65229584
 20
21.00348001
  0
VERTEX
  8
EGA2009.PLT
 62
7
 10
0.68768445
 20
20.57428964
  0
VERTEX
  8
EGA2009.PLT
 62
7
 10
0.72395705
 20
20.14462644
  0
VERTEX
  8
EGA2009.PLT
 62
7
 10
0.76110966
 20
19.71459265
  0
VERTEX
  8
EGA2009.PLT
 62
7
 10
0.79913833
 20
19.28429051
  0
VERTEX
  8
EGA2009.PLT
 62
7
 10
0.83803906
 20
18.85382227
  0
VERTEX
  8
EGA2009.PLT
 62
7
 10
0.87780790
 20
18.42329017
  0
VERTEX
  8
EGA2009.PLT
 62
7
 10
0.91844087
 20
17.99279645
  0
VERTEX
  8
EGA2009.PLT
 62
7
 10
0.95993400
 20
17.56244337
  0
VERTEX
  8
EGA2009.PLT
 62
7
 10
1.00228333
 20
17.13233316
  0
VERTEX
  8
EGA2009.PLT
 62
7
 10
1.04548487
 20
16.70256807
  0
VERTEX
  8
EGA2009.PLT
 62
7
 10
1.08953465
 20
16.27325035
  0
VERTEX
  8
EGA2009.PLT
 62
7
 10
1.13442872
 20
15.84448223
  0
VERTEX
  8
EGA2009.PLT
 62
7
 10
1.18016309
 20
15.41636597
  0
VERTEX
  8
EGA2009.PLT
 62
7
 10
1.22673379
 20
14.98900380
  0
VERTEX
  8
EGA2009.PLT
 62
7
 10
1.27413686
 20
14.56249797
  0
VERTEX
  8
EGA2009.PLT
 62
7
 10
1.32236831
 20
14.13695073
  0
VERTEX
  8
EGA2009.PLT
 62
7
 10
1.37142419
 20
13.71246432
  0
VERTEX
  8
EGA2009.PLT
 62
7
 10
1.42130052
 20
13.28914099
  0
VERTEX
  8
EGA2009.PLT
 62
7
 10
1.47199333
 20
12.86708297
  0
VERTEX
  8
EGA2009.PLT
 62
7
 10
1.52349865
 20
12.44639252
  0
VERTEX
  8
EGA2009.PLT
 62
7
 10
1.57581250
 20
12.02717188
  0
VERTEX
  8
EGA2009.PLT
 62
7
 10
1.62893092
 20
11.60952328
  0
VERTEX
  8
EGA2009.PLT
 62
7
 10
1.68284993
 20
11.19354898
  0
VERTEX
  8
EGA2009.PLT
 62
7
 10
1.73756557
 20
10.77935123
  0
VERTEX
  8
EGA2009.PLT
 62
7
 10
1.79307385
 20
10.36703226
  0
VERTEX
  8
EGA2009.PLT
 62
7
 10
1.84937082
 20
9.95669432
  0
VERTEX
  8
EGA2009.PLT
 62
7
 10
1.90645250
 20
9.54843965
  0
VERTEX
  8
EGA2009.PLT
 62
7
 10
1.96431492
 20
9.14237050
  0
VERTEX
  8
EGA2009.PLT
 62
7
 10
2.02295410
 20
8.73858911
  0
VERTEX
  8
EGA2009.PLT
 62
7
 10
2.08236608
 20
8.33719773
  0
VERTEX
  8
EGA2009.PLT
 62
7
 10
2.14254689
 20
7.93829860
  0
VERTEX
  8
EGA2009.PLT
 62
7
 10
2.20349255
 20
7.54199397
  0
VERTEX
  8
EGA2009.PLT
 62
7
 10
2.26519910
 20
7.14838608
  0
VERTEX
  8
EGA2009.PLT
 62
7
 10
2.32766255
 20
6.75757717
  0
VERTEX
  8
EGA2009.PLT
 62
7
 10
2.39087895
 20
6.36966949
  0
VERTEX
  8
EGA2009.PLT
 62
7
 10
2.45484432
 20
5.98476529
  0
VERTEX
  8
EGA2009.PLT
 62
7
 10
2.51955469
 20
5.60296680
  0
VERTEX
  8
EGA2009.PLT
 62
7
 10
2.58500608
 20
5.22437627
  0
VERTEX
  8
EGA2009.PLT
 62
7
 10
2.65119453
 20
4.84909595
  0
VERTEX
  8
EGA2009.PLT
 62
7
 10
2.71811607
 20
4.47722808
  0
VERTEX
  8
EGA2009.PLT
 62
7
 10
2.78576672
 20
4.10887491
  0
VERTEX
  8
EGA2009.PLT
 62
7
 10
2.85414252
 20
3.74413867
  0
VERTEX
  8
EGA2009.PLT
 62
7
 10
2.92323949
 20
3.38312162
  0
VERTEX
  8
EGA2009.PLT
 62
7
 10
2.99305366
 20
3.02592600
  0
VERTEX
  8
EGA2009.PLT
 62
7
 10
3.06358105
 20
2.67265405
  0
VERTEX
  8
EGA2009.PLT
 62
7
 10
3.13481771
 20
2.32340802
  0
VERTEX
  8
EGA2009.PLT
 62
7
 10
3.20675966
 20
1.97829015
  0
VERTEX
  8
EGA2009.PLT
 62
7
 10
3.27940292
 20
1.63740268
  0
VERTEX
  8
EGA2009.PLT
 62
7
 10
3.35274353
 20
1.30084787
  0
VERTEX
  8
EGA2009.PLT
 62
7
 10
3.42677751
 20
0.96872795
  0
VERTEX
  8
EGA2009.PLT
 62
7
 10
3.50150090
 20
0.64114517
  0
VERTEX
  8
EGA2009.PLT
 62
7
 10
3.57690972
 20
0.31820177
  0
SEQEND
  0
POLYLINE
  8
EGA2009.PLT
 62
7
 66
1
 70
1
  0
VERTEX
  8
EGA2009.PLT
 62
7
 10
9.86399831
 20
34.33800000
  0
VERTEX
  8
EGA2009.PLT
 62
7
 10
9.97399964
 20
40.03000086
  0
VERTEX
  8
EGA2009.PLT
 62
7
 10
11.08299847
 20
40.03000086
  0
VERTEX
  8
EGA2009.PLT
 62
7
 10
11.11072223
 20
40.02711243
  0
VERTEX
  8
EGA2009.PLT
 62
7
 10
11.13941126
 20
40.01875279
  0
VERTEX
  8
EGA2009.PLT
 62
7
 10
11.16890592
 20
40.00538046
  0
VERTEX
  8
EGA2009.PLT
 62
7
 10
11.19904652
 20
39.98745391
  0
VERTEX
  8
EGA2009.PLT
 62
7
 10
11.22967341
 20
39.96543165
  0
VERTEX
  8
EGA2009.PLT
 62
7
 10
11.26062692
 20
39.93977216
  0
VERTEX
  8
EGA2009.PLT
 62
7
 10
11.29174738
 20
39.91093395
  0
VERTEX
  8
EGA2009.PLT
 62
7
 10
11.32287512
 20
39.87937552
  0
VERTEX
  8
EGA2009.PLT
 62
7
 10
11.35385049
 20
39.84555534
  0
VERTEX
  8
EGA2009.PLT
 62
7
 10
11.38451381
 20
39.80993193
  0
VERTEX
  8
EGA2009.PLT
 62
7
 10
11.41470542
 20
39.77296377
  0
VERTEX
  8
EGA2009.PLT
 62
7
 10
11.44426565
 20
39.73510936
  0
VERTEX
  8
EGA2009.PLT
 62
7
 10
11.47303483
 20
39.69682720
  0
VERTEX
  8
EGA2009.PLT
 62
7
 10
11.50085331
 20
39.65857577
  0
VERTEX
  8
EGA2009.PLT
 62
7
 10
11.52756141
 20
39.62081359
  0
VERTEX
  8
EGA2009.PLT
 62
7
 10
11.55299947
 20
39.58399913
  0
VERTEX
  8
EGA2009.PLT
 62
7
 10
11.68600042
 20
41.52500021
  0
VERTEX
  8
EGA2009.PLT
 62
7
 10
11.65903542
 20
41.51304951
  0
VERTEX
  8
EGA2009.PLT
 62
7
 10
11.62834392
 20
41.50022436
  0
VERTEX
  8
EGA2009.PLT
 62
7
 10
11.59441807
 20
41.48675182
  0
VERTEX
  8
EGA2009.PLT
 62
7
 10
11.55775006
 20
41.47285893
  0
VERTEX
  8
EGA2009.PLT
 62
7
 10
11.51883208
 20
41.45877272
  0
VERTEX
  8
EGA2009.PLT
 62
7
 10
11.47815629
 20
41.44472025
  0
VERTEX
  8
EGA2009.PLT
 62
7
 10
11.43621488
 20
41.43092855
  0
VERTEX
  8
EGA2009.PLT
 62
7
 10
11.39350002
 20
41.41762468
  0
VERTEX
  8
EGA2009.PLT
 62
7
 10
11.35050390
 20
41.40503566
  0
VERTEX
  8
EGA2009.PLT
 62
7
 10
11.30771868
 20
41.39338856
  0
VERTEX
  8
EGA2009.PLT
 62
7
 10
11.26563655
 20
41.38291040
  0
VERTEX
  8
EGA2009.PLT
 62
7
 10
11.22474969
 20
41.37382823
  0
VERTEX
  8
EGA2009.PLT
 62
7
 10
11.18555027
 20
41.36636910
  0
VERTEX
  8
EGA2009.PLT
 62
7
 10
11.14853048
 20
41.36076005
  0
VERTEX
  8
EGA2009.PLT
 62
7
 10
11.11418249
 20
41.35722812
  0
VERTEX
  8
EGA2009.PLT
 62
7
 10
11.08299847
 20
41.35600036
  0
VERTEX
  8
EGA2009.PLT
 62
7
 10
9.97399964
 20
41.35600036
  0
VERTEX
  8
EGA2009.PLT
 62
7
 10
9.97700012
 20
43.34099758
  0
VERTEX
  8
EGA2009.PLT
 62
7
 10
9.97917158
 20
43.36633573
  0
VERTEX
  8
EGA2009.PLT
 62
7
 10
9.98509010
 20
43.39131058
  0
VERTEX
  8
EGA2009.PLT
 62
7
 10
9.99442463
 20
43.41586354
  0
VERTEX
  8
EGA2009.PLT
 62
7
 10
10.00684411
 20
43.43993600
  0
VERTEX
  8
EGA2009.PLT
 62
7
 10
10.02201749
 20
43.46346939
  0
VERTEX
  8
EGA2009.PLT
 62
7
 10
10.03961372
 20
43.48640511
  0
VERTEX
  8
EGA2009.PLT
 62
7
 10
10.05930173
 20
43.50868455
  0
VERTEX
  8
EGA2009.PLT
 62
7
 10
10.08075048
 20
43.53024914
  0
VERTEX
  8
EGA2009.PLT
 62
7
 10
10.10362892
 20
43.55104028
  0
VERTEX
  8
EGA2009.PLT
 62
7
 10
10.12760598
 20
43.57099936
  0
VERTEX
  8
EGA2009.PLT
 62
7
 10
10.15235061
 20
43.59006781
  0
VERTEX
  8
EGA2009.PLT
 62
7
 10
10.17753176
 20
43.60818702
  0
VERTEX
  8
EGA2009.PLT
 62
7
 10
10.20281837
 20
43.62529840
  0
VERTEX
  8
EGA2009.PLT
 62
7
 10
10.22787939
 20
43.64134336
  0
VERTEX
  8
EGA2009.PLT
 62
7
 10
10.25238376
 20
43.65626331
  0
VERTEX
  8
EGA2009.PLT
 62
7
 10
10.27600044
 20
43.66999965
  0
VERTEX
  8
EGA2009.PLT
 62
7
 10
9.26300021
 20
43.66999965
  0
VERTEX
  8
EGA2009.PLT
 62
7
 10
8.24500095
 20
43.66999965
  0
VERTEX
  8
EGA2009.PLT
 62
7
 10
8.26845226
 20
43.65626331
  0
VERTEX
  8
EGA2009.PLT
 62
7
 10
8.29283236
 20
43.64134336
  0
VERTEX
  8
EGA2009.PLT
 62
7
 10
8.31780431
 20
43.62529840
  0
VERTEX
  8
EGA2009.PLT
 62
7
 10
8.34303120
 20
43.60818702
  0
VERTEX
  8
EGA2009.PLT
 62
7
 10
8.36817611
 20
43.59006781
  0
VERTEX
  8
EGA2009.PLT
 62
7
 10
8.39290212
 20
43.57099936
  0
VERTEX
  8
EGA2009.PLT
 62
7
 10
8.41687231
 20
43.55104028
  0
VERTEX
  8
EGA2009.PLT
 62
7
 10
8.43974976
 20
43.53024914
  0
VERTEX
  8
EGA2009.PLT
 62
7
 10
8.46119754
 20
43.50868455
  0
VERTEX
  8
EGA2009.PLT
 62
7
 10
8.48087874
 20
43.48640511
  0
VERTEX
  8
EGA2009.PLT
 62
7
 10
8.49845643
 20
43.46346939
  0
VERTEX
  8
EGA2009.PLT
 62
7
 10
8.51359370
 20
43.43993600
  0
VERTEX
  8
EGA2009.PLT
 62
7
 10
8.52595362
 20
43.41586354
  0
VERTEX
  8
EGA2009.PLT
 62
7
 10
8.53519928
 20
43.39131058
  0
VERTEX
  8
EGA2009.PLT
 62
7
 10
8.54099375
 20
43.36633573
  0
VERTEX
  8
EGA2009.PLT
 62
7
 10
8.54300011
 20
43.34099758
  0
VERTEX
  8
EGA2009.PLT
 62
7
 10
8.54599983
 20
41.35600036
  0
VERTEX
  8
EGA2009.PLT
 62
7
 10
7.43699948
 20
41.35600036
  0
VERTEX
  8
EGA2009.PLT
 62
7
 10
7.40581599
 20
41.35722812
  0
VERTEX
  8
EGA2009.PLT
 62
7
 10
7.37146844
 20
41.36076005
  0
VERTEX
  8
EGA2009.PLT
 62
7
 10
7.33444902
 20
41.36636910
  0
VERTEX
  8
EGA2009.PLT
 62
7
 10
7.29524992
 20
41.37382823
  0
VERTEX
  8
EGA2009.PLT
 62
7
 10
7.25436332
 20
41.38291040
  0
VERTEX
  8
EGA2009.PLT
 62
7
 10
7.21228140
 20
41.39338856
  0
VERTEX
  8
EGA2009.PLT
 62
7
 10
7.16949636
 20
41.40503566
  0
VERTEX
  8
EGA2009.PLT
 62
7
 10
7.12650039
 20
41.41762468
  0
VERTEX
  8
EGA2009.PLT
 62
7
 10
7.08378567
 20
41.43092855
  0
VERTEX
  8
EGA2009.PLT
 62
7
 10
7.04184438
 20
41.44472025
  0
VERTEX
  8
EGA2009.PLT
 62
7
 10
7.00116872
 20
41.45877272
  0
VERTEX
  8
EGA2009.PLT
 62
7
 10
6.96225087
 20
41.47285893
  0
VERTEX
  8
EGA2009.PLT
 62
7
 10
6.92558302
 20
41.48675182
  0
VERTEX
  8
EGA2009.PLT
 62
7
 10
6.89165735
 20
41.50022436
  0
VERTEX
  8
EGA2009.PLT
 62
7
 10
6.86096606
 20
41.51304951
  0
VERTEX
  8
EGA2009.PLT
 62
7
 10
6.83400132
 20
41.52500021
  0
VERTEX
  8
EGA2009.PLT
 62
7
 10
6.96700075
 20
39.58399913
  0
VERTEX
  8
EGA2009.PLT
 62
7
 10
6.99260367
 20
39.62081359
  0
VERTEX
  8
EGA2009.PLT
 62
7
 10
7.01943414
 20
39.65857577
  0
VERTEX
  8
EGA2009.PLT
 62
7
 10
7.04733687
 20
39.69682720
  0
VERTEX
  8
EGA2009.PLT
 62
7
 10
7.07615659
 20
39.73510936
  0
VERTEX
  8
EGA2009.PLT
 62
7
 10
7.10573804
 20
39.77296377
  0
VERTEX
  8
EGA2009.PLT
 62
7
 10
7.13592593
 20
39.80993193
  0
VERTEX
  8
EGA2009.PLT
 62
7
 10
7.16656500
 20
39.84555534
  0
VERTEX
  8
EGA2009.PLT
 62
7
 10
7.19749997
 20
39.87937552
  0
VERTEX
  8
EGA2009.PLT
 62
7
 10
7.22857557
 20
39.91093395
  0
VERTEX
  8
EGA2009.PLT
 62
7
 10
7.25963653
 20
39.93977216
  0
VERTEX
  8
EGA2009.PLT
 62
7
 10
7.29052757
 20
39.96543165
  0
VERTEX
  8
EGA2009.PLT
 62
7
 10
7.32109343
 20
39.98745391
  0
VERTEX
  8
EGA2009.PLT
 62
7
 10
7.35117882
 20
40.00538046
  0
VERTEX
  8
EGA2009.PLT
 62
7
 10
7.38062847
 20
40.01875279
  0
VERTEX
  8
EGA2009.PLT
 62
7
 10
7.40928712
 20
40.02711243
  0
VERTEX
  8
EGA2009.PLT
 62
7
 10
7.43699948
 20
40.03000086
  0
VERTEX
  8
EGA2009.PLT
 62
7
 10
8.54599983
 20
40.03000086
  0
VERTEX
  8
EGA2009.PLT
 62
7
 10
8.65599964
 20
34.34300054
  0
VERTEX
  8
EGA2009.PLT
 62
7
 10
8.56819383
 20
34.41863338
  0
VERTEX
  8
EGA2009.PLT
 62
7
 10
8.48124769
 20
34.50256346
  0
VERTEX
  8
EGA2009.PLT
 62
7
 10
8.39521230
 20
34.59436928
  0
VERTEX
  8
EGA2009.PLT
 62
7
 10
8.31013876
 20
34.69362933
  0
VERTEX
  8
EGA2009.PLT
 62
7
 10
8.22607815
 20
34.79992209
  0
VERTEX
  8
EGA2009.PLT
 62
7
 10
8.14308155
 20
34.91282607
  0
VERTEX
  8
EGA2009.PLT
 62
7
 10
8.06120006
 20
35.03191975
  0
VERTEX
  8
EGA2009.PLT
 62
7
 10
7.98048476
 20
35.15678163
  0
VERTEX
  8
EGA2009.PLT
 62
7
 10
7.90098674
 20
35.28699019
  0
VERTEX
  8
EGA2009.PLT
 62
7
 10
7.82275708
 20
35.42212392
  0
VERTEX
  8
EGA2009.PLT
 62
7
 10
7.74584687
 20
35.56176132
  0
VERTEX
  8
EGA2009.PLT
 62
7
 10
7.67030720
 20
35.70548087
  0
VERTEX
  8
EGA2009.PLT
 62
7
 10
7.59618915
 20
35.85286108
  0
VERTEX
  8
EGA2009.PLT
 62
7
 10
7.52354381
 20
36.00348042
  0
VERTEX
  8
EGA2009.PLT
 62
7
 10
7.45242226
 20
36.15691739
  0
VERTEX
  8
EGA2009.PLT
 62
7
 10
7.38287560
 20
36.31275049
  0
VERTEX
  8
EGA2009.PLT
 62
7
 10
7.31495490
 20
36.47055819
  0
VERTEX
  8
EGA2009.PLT
 62
7
 10
7.24871126
 20
36.62991900
  0
VERTEX
  8
EGA2009.PLT
 62
7
 10
7.18419577
 20
36.79041140
  0
VERTEX
  8
EGA2009.PLT
 62
7
 10
7.12145950
 20
36.95161389
  0
VERTEX
  8
EGA2009.PLT
 62
7
 10
7.06055354
 20
37.11310495
  0
VERTEX
  8
EGA2009.PLT
 62
7
 10
7.00152899
 20
37.27446308
  0
VERTEX
  8
EGA2009.PLT
 62
7
 10
6.94443693
 20
37.43526677
  0
VERTEX
  8
EGA2009.PLT
 62
7
 10
6.88932843
 20
37.59509451
  0
VERTEX
  8
EGA2009.PLT
 62
7
 10
6.83625460
 20
37.75352478
  0
VERTEX
  8
EGA2009.PLT
 62
7
 10
6.78526652
 20
37.91013609
  0
VERTEX
  8
EGA2009.PLT
 62
7
 10
6.73641527
 20
38.06450692
  0
VERTEX
  8
EGA2009.PLT
 62
7
 10
6.68975195
 20
38.21621576
  0
VERTEX
  8
EGA2009.PLT
 62
7
 10
6.64532762
 20
38.36484111
  0
VERTEX
  8
EGA2009.PLT
 62
7
 10
6.60319340
 20
38.50996145
  0
VERTEX
  8
EGA2009.PLT
 62
7
 10
6.56340035
 20
38.65115528
  0
VERTEX
  8
EGA2009.PLT
 62
7
 10
6.52599956
 20
38.78800108
  0
VERTEX
  8
EGA2009.PLT
 62
7
 10
6.50632669
 20
38.86605273
  0
VERTEX
  8
EGA2009.PLT
 62
7
 10
6.48797265
 20
38.94800372
  0
VERTEX
  8
EGA2009.PLT
 62
7
 10
6.47089332
 20
39.03343636
  0
VERTEX
  8
EGA2009.PLT
 62
7
 10
6.45504457
 20
39.12193297
  0
VERTEX
  8
EGA2009.PLT
 62
7
 10
6.44038228
 20
39.21307584
  0
VERTEX
  8
EGA2009.PLT
 62
7
 10
6.42686231
 20
39.30644731
  0
VERTEX
  8
EGA2009.PLT
 62
7
 10
6.41444053
 20
39.40162968
  0
VERTEX
  8
EGA2009.PLT
 62
7
 10
6.40307282
 20
39.49820527
  0
VERTEX
  8
EGA2009.PLT
 62
7
 10
6.39271505
 20
39.59575639
  0
VERTEX
  8
EGA2009.PLT
 62
7
 10
6.38332309
 20
39.69386535
  0
VERTEX
  8
EGA2009.PLT
 62
7
 10
6.37485281
 20
39.79211447
  0
VERTEX
  8
EGA2009.PLT
 62
7
 10
6.36726008
 20
39.89008606
  0
VERTEX
  8
EGA2009.PLT
 62
7
 10
6.36050078
 20
39.98736243
  0
VERTEX
  8
EGA2009.PLT
 62
7
 10
6.35453077
 20
40.08352590
  0
VERTEX
  8
EGA2009.PLT
 62
7
 10
6.34930593
 20
40.17815879
  0
VERTEX
  8
EGA2009.PLT
 62
7
 10
6.34478213
 20
40.27084340
  0
VERTEX
  8
EGA2009.PLT
 62
7
 10
4.26799984
 20
40.63972115
  0
VERTEX
  8
EGA2009.PLT
 62
7
 10
4.52269918
 20
40.69159678
  0
VERTEX
  8
EGA2009.PLT
 62
7
 10
4.77540628
 20
40.74553457
  0
VERTEX
  8
EGA2009.PLT
 62
7
 10
5.02628520
 20
40.80200336
  0
VERTEX
  8
EGA2009.PLT
 62
7
 10
5.27549998
 20
40.86147197
  0
VERTEX
  8
EGA2009.PLT
 62
7
 10
5.52321468
 20
40.92440924
  0
VERTEX
  8
EGA2009.PLT
 62
7
 10
5.76959335
 20
40.99128398
  0
VERTEX
  8
EGA2009.PLT
 62
7
 10
6.01480003
 20
41.06256503
  0
VERTEX
  8
EGA2009.PLT
 62
7
 10
6.25899877
 20
41.13872121
  0
VERTEX
  8
EGA2009.PLT
 62
7
 10
6.27455321
 20
41.32677598
  0
VERTEX
  8
EGA2009.PLT
 62
7
 10
6.29600071
 20
41.51153548
  0
VERTEX
  8
EGA2009.PLT
 62
7
 10
6.32320507
 20
41.69286099
  0
VERTEX
  8
EGA2009.PLT
 62
7
 10
6.35603003
 20
41.87061379
  0
VERTEX
  8
EGA2009.PLT
 62
7
 10
6.39433938
 20
42.04465517
  0
VERTEX
  8
EGA2009.PLT
 62
7
 10
6.43799688
 20
42.21484643
  0
VERTEX
  8
EGA2009.PLT
 62
7
 10
6.48686629
 20
42.38104884
  0
VERTEX
  8
EGA2009.PLT
 62
7
 10
6.54081140
 20
42.54312369
  0
VERTEX
  8
EGA2009.PLT
 62
7
 10
6.59969597
 20
42.70093228
  0
VERTEX
  8
EGA2009.PLT
 62
7
 10
6.66338376
 20
42.85433589
  0
VERTEX
  8
EGA2009.PLT
 62
7
 10
6.73173855
 20
43.00319581
  0
VERTEX
  8
EGA2009.PLT
 62
7
 10
6.80462411
 20
43.14737332
  0
VERTEX
  8
EGA2009.PLT
 62
7
 10
6.88190420
 20
43.28672971
  0
VERTEX
  8
EGA2009.PLT
 62
7
 10
6.96344260
 20
43.42112627
  0
VERTEX
  8
EGA2009.PLT
 62
7
 10
7.04910306
 20
43.55042428
  0
VERTEX
  8
EGA2009.PLT
 62
7
 10
7.13874937
 20
43.67448504
  0
VERTEX
  8
EGA2009.PLT
 62
7
 10
7.23224529
 20
43.79316983
  0
VERTEX
  8
EGA2009.PLT
 62
7
 10
7.32945460
 20
43.90633993
  0
VERTEX
  8
EGA2009.PLT
 62
7
 10
7.43024105
 20
44.01385664
  0
VERTEX
  8
EGA2009.PLT
 62
7
 10
7.53446842
 20
44.11558125
  0
VERTEX
  8
EGA2009.PLT
 62
7
 10
7.64200047
 20
44.21137503
  0
VERTEX
  8
EGA2009.PLT
 62
7
 10
7.75270099
 20
44.30109928
  0
VERTEX
  8
EGA2009.PLT
 62
7
 10
7.86643373
 20
44.38461528
  0
VERTEX
  8
EGA2009.PLT
 62
7
 10
7.98306246
 20
44.46178433
  0
VERTEX
  8
EGA2009.PLT
 62
7
 10
8.10245096
 20
44.53246770
  0
VERTEX
  8
EGA2009.PLT
 62
7
 10
8.22446299
 20
44.59652669
  0
VERTEX
  8
EGA2009.PLT
 62
7
 10
8.34896232
 20
44.65382259
  0
VERTEX
  8
EGA2009.PLT
 62
7
 10
8.47581273
 20
44.70421667
  0
VERTEX
  8
EGA2009.PLT
 62
7
 10
8.60487797
 20
44.74757023
  0
VERTEX
  8
EGA2009.PLT
 62
7
 10
8.73602183
 20
44.78374456
  0
VERTEX
  8
EGA2009.PLT
 62
7
 10
8.86910806
 20
44.81260094
  0
VERTEX
  8
EGA2009.PLT
 62
7
 10
9.00400044
 20
44.83400066
  0
VERTEX
  8
EGA2009.PLT
 62
7
 10
9.42100084
 20
47.03399924
  0
VERTEX
  8
EGA2009.PLT
 62
7
 10
9.73918832
 20
44.79466982
  0
VERTEX
  8
EGA2009.PLT
 62
7
 10
9.86449448
 20
44.76206772
  0
VERTEX
  8
EGA2009.PLT
 62
7
 10
9.98797970
 20
44.72308112
  0
VERTEX
  8
EGA2009.PLT
 62
7
 10
10.10952729
 20
44.67782174
  0
VERTEX
  8
EGA2009.PLT
 62
7
 10
10.22902056
 20
44.62640127
  0
VERTEX
  8
EGA2009.PLT
 62
7
 10
10.34634282
 20
44.56893141
  0
VERTEX
  8
EGA2009.PLT
 62
7
 10
10.46137736
 20
44.50552385
  0
VERTEX
  8
EGA2009.PLT
 62
7
 10
10.57400751
 20
44.43629029
  0
VERTEX
  8
EGA2009.PLT
 62
7
 10
10.68411655
 20
44.36134244
  0
VERTEX
  8
EGA2009.PLT
 62
7
 10
10.79158781
 20
44.28079199
  0
VERTEX
  8
EGA2009.PLT
 62
7
 10
10.89630458
 20
44.19475065
  0
VERTEX
  8
EGA2009.PLT
 62
7
 10
10.99815018
 20
44.10333010
  0
VERTEX
  8
EGA2009.PLT
 62
7
 10
11.09700790
 20
44.00664204
  0
VERTEX
  8
EGA2009.PLT
 62
7
 10
11.19276106
 20
43.90479819
  0
VERTEX
  8
EGA2009.PLT
 62
7
 10
11.28529295
 20
43.79791022
  0
VERTEX
  8
EGA2009.PLT
 62
7
 10
11.37448690
 20
43.68608986
  0
VERTEX
  8
EGA2009.PLT
 62
7
 10
11.46022619
 20
43.56944878
  0
VERTEX
  8
EGA2009.PLT
 62
7
 10
11.54239415
 20
43.44809869
  0
VERTEX
  8
EGA2009.PLT
 62
7
 10
11.62087407
 20
43.32215129
  0
VERTEX
  8
EGA2009.PLT
 62
7
 10
11.69554927
 20
43.19171828
  0
VERTEX
  8
EGA2009.PLT
 62
7
 10
11.76630304
 20
43.05691136
  0
VERTEX
  8
EGA2009.PLT
 62
7
 10
11.83301870
 20
42.91784221
  0
VERTEX
  8
EGA2009.PLT
 62
7
 10
11.89557955
 20
42.77462256
  0
VERTEX
  8
EGA2009.PLT
 62
7
 10
11.95386889
 20
42.62736408
  0
VERTEX
  8
EGA2009.PLT
 62
7
 10
12.00777004
 20
42.47617848
  0
VERTEX
  8
EGA2009.PLT
 62
7
 10
12.05716630
 20
42.32117746
  0
VERTEX
  8
EGA2009.PLT
 62
7
 10
12.10194097
 20
42.16247272
  0
VERTEX
  8
EGA2009.PLT
 62
7
 10
12.14197737
 20
42.00017596
  0
VERTEX
  8
EGA2009.PLT
 62
7
 10
12.17715879
 20
41.83439886
  0
VERTEX
  8
EGA2009.PLT
 62
7
 10
12.20736855
 20
41.66525314
  0
VERTEX
  8
EGA2009.PLT
 62
7
 10
12.23248995
 20
41.49285050
  0
VERTEX
  8
EGA2009.PLT
 62
7
 10
12.25240629
 20
41.31730262
  0
VERTEX
  8
EGA2009.PLT
 62
7
 10
12.26700089
 20
41.13872121
  0
VERTEX
  8
EGA2009.PLT
 62
7
 10
12.51119967
 20
41.06256503
  0
VERTEX
  8
EGA2009.PLT
 62
7
 10
12.75640642
 20
40.99128398
  0
VERTEX
  8
EGA2009.PLT
 62
7
 10
13.00278518
 20
40.92440924
  0
VERTEX
  8
EGA2009.PLT
 62
7
 10
13.25049997
 20
40.86147197
  0
VERTEX
  8
EGA2009.PLT
 62
7
 10
13.49971480
 20
40.80200336
  0
VERTEX
  8
EGA2009.PLT
 62
7
 10
13.75059370
 20
40.74553457
  0
VERTEX
  8
EGA2009.PLT
 62
7
 10
14.00330071
 20
40.69159678
  0
VERTEX
  8
EGA2009.PLT
 62
7
 10
14.25799983
 20
40.63972115
  0
VERTEX
  8
EGA2009.PLT
 62
7
 10
12.18120013
 20
40.27044459
  0
VERTEX
  8
EGA2009.PLT
 62
7
 10
12.17667471
 20
40.17778208
  0
VERTEX
  8
EGA2009.PLT
 62
7
 10
12.17144845
 20
40.08317251
  0
VERTEX
  8
EGA2009.PLT
 62
7
 10
12.16547725
 20
39.98703340
  0
VERTEX
  8
EGA2009.PLT
 62
7
 10
12.15871702
 20
39.88978224
  0
VERTEX
  8
EGA2009.PLT
 62
7
 10
12.15112367
 20
39.79183654
  0
VERTEX
  8
EGA2009.PLT
 62
7
 10
12.14265310
 20
39.69361381
  0
VERTEX
  8
EGA2009.PLT
 62
7
 10
12.13326123
 20
39.59553156
  0
VERTEX
  8
EGA2009.PLT
 62
7
 10
12.12290395
 20
39.49800729
  0
VERTEX
  8
EGA2009.PLT
 62
7
 10
12.11153718
 20
39.40145850
  0
VERTEX
  8
EGA2009.PLT
 62
7
 10
12.09911682
 20
39.30630270
  0
VERTEX
  8
EGA2009.PLT
 62
7
 10
12.08559878
 20
39.21295741
  0
VERTEX
  8
EGA2009.PLT
 62
7
 10
12.07093896
 20
39.12184011
  0
VERTEX
  8
EGA2009.PLT
 62
7
 10
12.05509328
 20
39.03336833
  0
VERTEX
  8
EGA2009.PLT
 62
7
 10
12.03801764
 20
38.94795955
  0
VERTEX
  8
EGA2009.PLT
 62
7
 10
12.01966794
 20
38.86603130
  0
VERTEX
  8
EGA2009.PLT
 62
7
 10
12.00000010
 20
38.78800108
  0
VERTEX
  8
EGA2009.PLT
 62
7
 10
11.96250281
 20
38.65086560
  0
VERTEX
  8
EGA2009.PLT
 62
7
 10
11.92260738
 20
38.50936691
  0
VERTEX
  8
EGA2009.PLT
 62
7
 10
11.88036489
 20
38.36392890
  0
VERTEX
  8
EGA2009.PLT
 62
7
 10
11.83582645
 20
38.21497546
  0
VERTEX
  8
EGA2009.PLT
 62
7
 10
11.78904312
 20
38.06293047
  0
VERTEX
  8
EGA2009.PLT
 62
7
 10
11.74006601
 20
37.90821783
  0
VERTEX
  8
EGA2009.PLT
 62
7
 10
11.68894618
 20
37.75126143
  0
VERTEX
  8
EGA2009.PLT
 62
7
 10
11.63573474
 20
37.59248515
  0
VERTEX
  8
EGA2009.PLT
 62
7
 10
11.58048276
 20
37.43231287
  0
VERTEX
  8
EGA2009.PLT
 62
7
 10
11.52324134
 20
37.27116850
  0
VERTEX
  8
EGA2009.PLT
 62
7
 10
11.46406155
 20
37.10947591
  0
VERTEX
  8
EGA2009.PLT
 62
7
 10
11.40299449
 20
36.94765899
  0
VERTEX
  8
EGA2009.PLT
 62
7
 10
11.34009124
 20
36.78614164
  0
VERTEX
  8
EGA2009.PLT
 62
7
 10
11.27540289
 20
36.62534774
  0
VERTEX
  8
EGA2009.PLT
 62
7
 10
11.20898052
 20
36.46570118
  0
VERTEX
  8
EGA2009.PLT
 62
7
 10
11.14087522
 20
36.30762584
  0
VERTEX
  8
EGA2009.PLT
 62
7
 10
11.07113808
 20
36.15154562
  0
VERTEX
  8
EGA2009.PLT
 62
7
 10
10.99982018
 20
35.99788440
  0
VERTEX
  8
EGA2009.PLT
 62
7
 10
10.92697261
 20
35.84706607
  0
VERTEX
  8
EGA2009.PLT
 62
7
 10
10.85264645
 20
35.69951452
  0
VERTEX
  8
EGA2009.PLT
 62
7
 10
10.77689280
 20
35.55565364
  0
VERTEX
  8
EGA2009.PLT
 62
7
 10
10.69976273
 20
35.41590731
  0
VERTEX
  8
EGA2009.PLT
 62
7
 10
10.62130733
 20
35.28069943
  0
VERTEX
  8
EGA2009.PLT
 62
7
 10
10.54157770
 20
35.15045388
  0
VERTEX
  8
EGA2009.PLT
 62
7
 10
10.46062491
 20
35.02559455
  0
VERTEX
  8
EGA2009.PLT
 62
7
 10
10.37850005
 20
34.90654533
  0
VERTEX
  8
EGA2009.PLT
 62
7
 10
10.29525421
 20
34.79373010
  0
VERTEX
  8
EGA2009.PLT
 62
7
 10
10.21093848
 20
34.68757276
  0
VERTEX
  8
EGA2009.PLT
 62
7
 10
10.12560393
 20
34.58849719
  0
VERTEX
  8
EGA2009.PLT
 62
7
 10
10.03930167
 20
34.49692728
  0
VERTEX
  8
EGA2009.PLT
 62
7
 10
9.95208276
 20
34.41328692
  0
SEQEND
  0
POLYLINE
  8
EGA2009.PLT
 62
7
 66
1
 70
1
  0
VERTEX
  8
EGA2009.PLT
 62
7
 10
9.34200000
 20
40.66700000
  0
VERTEX
  8
EGA2009.PLT
 62
7
 10
9.34200000
 20
34.64300000
  0
VERTEX
  8
EGA2009.PLT
 62
7
 10
9.18200000
 20
34.64300000
  0
VERTEX
  8
EGA2009.PLT
 62
7
 10
9.18200000
 20
40.66700000
  0
VERTEX
  8
EGA2009.PLT
 62
7
 10
8.81600000
 20
40.66700000
  0
VERTEX
  8
EGA2009.PLT
 62
7
 10
8.65800000
 20
40.42200000
  0
VERTEX
  8
EGA2009.PLT
 62
7
 10
8.55700000
 20
40.48700000
  0
VERTEX
  8
EGA2009.PLT
 62
7
 10
8.75100000
 20
40.78700000
  0
VERTEX
  8
EGA2009.PLT
 62
7
 10
9.18200000
 20
40.78700000
  0
VERTEX
  8
EGA2009.PLT
 62
7
 10
9.18200000
 20
42.95900000
  0
VERTEX
  8
EGA2009.PLT
 62
7
 10
9.21304297
 20
42.97686719
  0
VERTEX
  8
EGA2009.PLT
 62
7
 10
9.24528125
 20
42.99037500
  0
VERTEX
  8
EGA2009.PLT
 62
7
 10
9.27850391
 20
43.00013281
  0
VERTEX
  8
EGA2009.PLT
 62
7
 10
9.31250000
 20
43.00675000
  0
VERTEX
  8
EGA2009.PLT
 62
7
 10
9.34705859
 20
43.01083594
  0
VERTEX
  8
EGA2009.PLT
 62
7
 10
9.38196875
 20
43.01300000
  0
VERTEX
  8
EGA2009.PLT
 62
7
 10
9.41701953
 20
43.01385156
  0
VERTEX
  8
EGA2009.PLT
 62
7
 10
9.45200000
 20
43.01400000
  0
VERTEX
  8
EGA2009.PLT
 62
7
 10
9.45200000
 20
43.01400000
  0
VERTEX
  8
EGA2009.PLT
 62
7
 10
9.49807812
 20
43.01192187
  0
VERTEX
  8
EGA2009.PLT
 62
7
 10
9.54162500
 20
43.00562500
  0
VERTEX
  8
EGA2009.PLT
 62
7
 10
9.58235937
 20
42.99501563
  0
VERTEX
  8
EGA2009.PLT
 62
7
 10
9.62000000
 20
42.98000000
  0
VERTEX
  8
EGA2009.PLT
 62
7
 10
9.66259375
 20
42.95637500
  0
VERTEX
  8
EGA2009.PLT
 62
7
 10
9.69750000
 20
42.92750000
  0
VERTEX
  8
EGA2009.PLT
 62
7
 10
9.72490625
 20
42.89337500
  0
VERTEX
  8
EGA2009.PLT
 62
7
 10
9.74500000
 20
42.85400000
  0
VERTEX
  8
EGA2009.PLT
 62
7
 10
9.76353125
 20
42.79734375
  0
VERTEX
  8
EGA2009.PLT
 62
7
 10
9.77700000
 20
42.73675000
  0
VERTEX
  8
EGA2009.PLT
 62
7
 10
9.78521875
 20
42.67203125
  0
VERTEX
  8
EGA2009.PLT
 62
7
 10
9.78800000
 20
42.60300000
  0
VERTEX
  8
EGA2009.PLT
 62
7
 10
9.78589063
 20
42.53708984
  0
VERTEX
  8
EGA2009.PLT
 62
7
 10
9.77956250
 20
42.46984375
  0
VERTEX
  8
EGA2009.PLT
 62
7
 10
9.76901562
 20
42.40123828
  0
VERTEX
  8
EGA2009.PLT
 62
7
 10
9.75425000
 20
42.33125000
  0
VERTEX
  8
EGA2009.PLT
 62
7
 10
9.73526563
 20
42.25985547
  0
VERTEX
  8
EGA2009.PLT
 62
7
 10
9.71206250
 20
42.18703125
  0
VERTEX
  8
EGA2009.PLT
 62
7
 10
9.68464063
 20
42.11275391
  0
VERTEX
  8
EGA2009.PLT
 62
7
 10
9.65300000
 20
42.03700000
  0
VERTEX
  8
EGA2009.PLT
 62
7
 10
9.62126172
 20
41.96898633
  0
VERTEX
  8
EGA2009.PLT
 62
7
 10
9.58753125
 20
41.90295313
  0
VERTEX
  8
EGA2009.PLT
 62
7
 10
9.55178516
 20
41.83891211
  0
VERTEX
  8
EGA2009.PLT
 62
7
 10
9.51400000
 20
41.77687500
  0
VERTEX
  8
EGA2009.PLT
 62
7
 10
9.47415234
 20
41.71685352
  0
VERTEX
  8
EGA2009.PLT
 62
7
 10
9.43221875
 20
41.65885937
  0
VERTEX
  8
EGA2009.PLT
 62
7
 10
9.38817578
 20
41.60290430
  0
VERTEX
  8
EGA2009.PLT
 62
7
 10
9.34200000
 20
41.54900000
  0
VERTEX
  8
EGA2009.PLT
 62
7
 10
9.34200000
 20
40.78700000
  0
VERTEX
  8
EGA2009.PLT
 62
7
 10
9.70900000
 20
40.78700000
  0
VERTEX
  8
EGA2009.PLT
 62
7
 10
9.86600000
 20
41.03200000
  0
VERTEX
  8
EGA2009.PLT
 62
7
 10
9.96700000
 20
40.96700000
  0
VERTEX
  8
EGA2009.PLT
 62
7
 10
9.77400000
 20
40.66700000
  0
SEQEND
  0
POLYLINE
  8
EGA2009.PLT
 62
7
 66
1
 70
1
  0
VERTEX
  8
EGA2009.PLT
 62
7
 10
10.33309010
 20
36.03317730
  0
VERTEX
  8
EGA2009.PLT
 62
7
 10
10.30875172
 20
36.03260383
  0
VERTEX
  8
EGA2009.PLT
 62
7
 10
10.28525923
 20
36.02980945
  0
VERTEX
  8
EGA2009.PLT
 62
7
 10
10.26261263
 20
36.02479415
  0
VERTEX
  8
EGA2009.PLT
 62
7
 10
10.24081191
 20
36.01755794
  0
VERTEX
  8
EGA2009.PLT
 62
7
 10
10.21985707
 20
36.00810080
  0
VERTEX
  8
EGA2009.PLT
 62
7
 10
10.19974812
 20
35.99642276
  0
VERTEX
  8
EGA2009.PLT
 62
7
 10
10.18048505
 20
35.98252379
  0
VERTEX
  8
EGA2009.PLT
 62
7
 10
10.16206786
 20
35.96640391
  0
VERTEX
  8
EGA2009.PLT
 62
7
 10
10.14516469
 20
35.94870289
  0
VERTEX
  8
EGA2009.PLT
 62
7
 10
10.13044367
 20
35.93006050
  0
VERTEX
  8
EGA2009.PLT
 62
7
 10
10.11790482
 20
35.91047674
  0
VERTEX
  8
EGA2009.PLT
 62
7
 10
10.10754812
 20
35.88995160
  0
VERTEX
  8
EGA2009.PLT
 62
7
 10
10.09937358
 20
35.86848509
  0
VERTEX
  8
EGA2009.PLT
 62
7
 10
10.09338120
 20
35.84607721
  0
VERTEX
  8
EGA2009.PLT
 62
7
 10
10.08957097
 20
35.82272796
  0
VERTEX
  8
EGA2009.PLT
 62
7
 10
10.08794290
 20
35.79843734
  0
VERTEX
  8
EGA2009.PLT
 62
7
 10
10.08851636
 20
35.77409896
  0
VERTEX
  8
EGA2009.PLT
 62
7
 10
10.09131074
 20
35.75060647
  0
VERTEX
  8
EGA2009.PLT
 62
7
 10
10.09632603
 20
35.72795986
  0
VERTEX
  8
EGA2009.PLT
 62
7
 10
10.10356224
 20
35.70615914
  0
VERTEX
  8
EGA2009.PLT
 62
7
 10
10.11301937
 20
35.68520431
  0
VERTEX
  8
EGA2009.PLT
 62
7
 10
10.12469742
 20
35.66509535
  0
VERTEX
  8
EGA2009.PLT
 62
7
 10
10.13859638
 20
35.64583229
  0
VERTEX
  8
EGA2009.PLT
 62
7
 10
10.15471626
 20
35.62741510
  0
VERTEX
  8
EGA2009.PLT
 62
7
 10
10.17241728
 20
35.61051193
  0
VERTEX
  8
EGA2009.PLT
 62
7
 10
10.19105967
 20
35.59579091
  0
VERTEX
  8
EGA2009.PLT
 62
7
 10
10.21064344
 20
35.58325205
  0
VERTEX
  8
EGA2009.PLT
 62
7
 10
10.23116858
 20
35.57289535
  0
VERTEX
  8
EGA2009.PLT
 62
7
 10
10.25263509
 20
35.56472081
  0
VERTEX
  8
EGA2009.PLT
 62
7
 10
10.27504298
 20
35.55872842
  0
VERTEX
  8
EGA2009.PLT
 62
7
 10
10.29839224
 20
35.55491819
  0
VERTEX
  8
EGA2009.PLT
 62
7
 10
10.32268287
 20
35.55329011
  0
VERTEX
  8
EGA2009.PLT
 62
7
 10
10.34716305
 20
35.55386127
  0
VERTEX
  8
EGA2009.PLT
 62
7
 10
10.37077199
 20
35.55665542
  0
VERTEX
  8
EGA2009.PLT
 62
7
 10
10.39350971
 20
35.56167256
  0
VERTEX
  8
EGA2009.PLT
 62
7
 10
10.41537620
 20
35.56891270
  0
VERTEX
  8
EGA2009.PLT
 62
7
 10
10.43637146
 20
35.57837583
  0
VERTEX
  8
EGA2009.PLT
 62
7
 10
10.45649550
 20
35.59006195
  0
VERTEX
  8
EGA2009.PLT
 62
7
 10
10.47574830
 20
35.60397107
  0
VERTEX
  8
EGA2009.PLT
 62
7
 10
10.49412988
 20
35.62010318
  0
VERTEX
  8
EGA2009.PLT
 62
7
 10
10.51093286
 20
35.63776592
  0
VERTEX
  8
EGA2009.PLT
 62
7
 10
10.52556714
 20
35.65637954
  0
VERTEX
  8
EGA2009.PLT
 62
7
 10
10.53803271
 20
35.67594406
  0
VERTEX
  8
EGA2009.PLT
 62
7
 10
10.54832958
 20
35.69645948
  0
VERTEX
  8
EGA2009.PLT
 62
7
 10
10.55645776
 20
35.71792579
  0
VERTEX
  8
EGA2009.PLT
 62
7
 10
10.56241723
 20
35.74034300
  0
VERTEX
  8
EGA2009.PLT
 62
7
 10
10.56620800
 20
35.76371111
  0
VERTEX
  8
EGA2009.PLT
 62
7
 10
10.56783006
 20
35.78803011
  0
VERTEX
  8
EGA2009.PLT
 62
7
 10
10.56726383
 20
35.81239655
  0
VERTEX
  8
EGA2009.PLT
 62
7
 10
10.56448971
 20
35.83590702
  0
VERTEX
  8
EGA2009.PLT
 62
7
 10
10.55950770
 20
35.85856151
  0
VERTEX
  8
EGA2009.PLT
 62
7
 10
10.55231781
 20
35.88036003
  0
VERTEX
  8
EGA2009.PLT
 62
7
 10
10.54292002
 20
35.90130256
  0
VERTEX
  8
EGA2009.PLT
 62
7
 10
10.53131435
 20
35.92138911
  0
VERTEX
  8
EGA2009.PLT
 62
7
 10
10.51750079
 20
35.94061967
  0
VERTEX
  8
EGA2009.PLT
 62
7
 10
10.50147933
 20
35.95899426
  0
VERTEX
  8
EGA2009.PLT
 62
7
 10
10.48381443
 20
35.97590811
  0
VERTEX
  8
EGA2009.PLT
 62
7
 10
10.46518273
 20
35.99063882
  0
VERTEX
  8
EGA2009.PLT
 62
7
 10
10.44558426
 20
36.00318640
  0
VERTEX
  8
EGA2009.PLT
 62
7
 10
10.42501899
 20
36.01355085
  0
VERTEX
  8
EGA2009.PLT
 62
7
 10
10.40348695
 20
36.02173216
  0
VERTEX
  8
EGA2009.PLT
 62
7
 10
10.38098811
 20
36.02773034
  0
VERTEX
  8
EGA2009.PLT
 62
7
 10
10.35752250
 20
36.03154539
  0
SEQEND
  0
POLYLINE
  8
EGA2009.PLT
 62
7
 66
1
 70
1
  0
VERTEX
  8
EGA2009.PLT
 62
7
 10
8.16435243
 20
36.99545768
  0
VERTEX
  8
EGA2009.PLT
 62
7
 10
8.13991446
 20
36.99391141
  0
VERTEX
  8
EGA2009.PLT
 62
7
 10
8.11643561
 20
36.99017863
  0
VERTEX
  8
EGA2009.PLT
 62
7
 10
8.09391589
 20
36.98425934
  0
VERTEX
  8
EGA2009.PLT
 62
7
 10
8.07235530
 20
36.97615354
  0
VERTEX
  8
EGA2009.PLT
 62
7
 10
8.05175384
 20
36.96586124
  0
VERTEX
  8
EGA2009.PLT
 62
7
 10
8.03211150
 20
36.95338243
  0
VERTEX
  8
EGA2009.PLT
 62
7
 10
8.01342830
 20
36.93871712
  0
VERTEX
  8
EGA2009.PLT
 62
7
 10
7.99570422
 20
36.92186529
  0
VERTEX
  8
EGA2009.PLT
 62
7
 10
7.97961847
 20
36.90354696
  0
VERTEX
  8
EGA2009.PLT
 62
7
 10
7.96573760
 20
36.88436492
  0
VERTEX
  8
EGA2009.PLT
 62
7
 10
7.95406160
 20
36.86431916
  0
VERTEX
  8
EGA2009.PLT
 62
7
 10
7.94459047
 20
36.84340970
  0
VERTEX
  8
EGA2009.PLT
 62
7
 10
7.93732423
 20
36.82163652
  0
VERTEX
  8
EGA2009.PLT
 62
7
 10
7.93226285
 20
36.79899962
  0
VERTEX
  8
EGA2009.PLT
 62
7
 10
7.92940636
 20
36.77549902
  0
VERTEX
  8
EGA2009.PLT
 62
7
 10
7.92875473
 20
36.75113471
  0
VERTEX
  8
EGA2009.PLT
 62
7
 10
7.93029155
 20
36.72681018
  0
VERTEX
  8
EGA2009.PLT
 62
7
 10
7.93400039
 20
36.70342893
  0
VERTEX
  8
EGA2009.PLT
 62
7
 10
7.93988125
 20
36.68099098
  0
VERTEX
  8
EGA2009.PLT
 62
7
 10
7.94793414
 20
36.65949631
  0
VERTEX
  8
EGA2009.PLT
 62
7
 10
7.95815905
 20
36.63894492
  0
VERTEX
  8
EGA2009.PLT
 62
7
 10
7.97055598
 20
36.61933683
  0
VERTEX
  8
EGA2009.PLT
 62
7
 10
7.98512494
 20
36.60067202
  0
VERTEX
  8
EGA2009.PLT
 62
7
 10
8.00186592
 20
36.58295050
  0
VERTEX
  8
EGA2009.PLT
 62
7
 10
8.02019084
 20
36.56675407
  0
VERTEX
  8
EGA2009.PLT
 62
7
 10
8.03939477
 20
36.55277757
  0
VERTEX
  8
EGA2009.PLT
 62
7
 10
8.05947772
 20
36.54102099
  0
VERTEX
  8
EGA2009.PLT
 62
7
 10
8.08043969
 20
36.53148434
  0
VERTEX
  8
EGA2009.PLT
 62
7
 10
8.10228068
 20
36.52416761
  0
VERTEX
  8
EGA2009.PLT
 62
7
 10
8.12500068
 20
36.51907081
  0
VERTEX
  8
EGA2009.PLT
 62
7
 10
8.14859969
 20
36.51619393
  0
VERTEX
  8
EGA2009.PLT
 62
7
 10
8.17307772
 20
36.51553698
  0
VERTEX
  8
EGA2009.PLT
 62
7
 10
8.19737391
 20
36.51707992
  0
VERTEX
  8
EGA2009.PLT
 62
7
 10
8.22073638
 20
36.52080829
  0
VERTEX
  8
EGA2009.PLT
 62
7
 10
8.24316512
 20
36.52672211
  0
VERTEX
  8
EGA2009.PLT
 62
7
 10
8.26466015
 20
36.53482137
  0
VERTEX
  8
EGA2009.PLT
 62
7
 10
8.28522145
 20
36.54510607
  0
VERTEX
  8
EGA2009.PLT
 62
7
 10
8.30484904
 20
36.55757621
  0
VERTEX
  8
EGA2009.PLT
 62
7
 10
8.32354291
 20
36.57223180
  0
VERTEX
  8
EGA2009.PLT
 62
7
 10
8.34130305
 20
36.58907283
  0
VERTEX
  8
EGA2009.PLT
 62
7
 10
8.35748739
 20
36.60743340
  0
VERTEX
  8
EGA2009.PLT
 62
7
 10
8.37145378
 20
36.62664764
  0
VERTEX
  8
EGA2009.PLT
 62
7
 10
8.38320224
 20
36.64671554
  0
VERTEX
  8
EGA2009.PLT
 62
7
 10
8.39273275
 20
36.66763710
  0
VERTEX
  8
EGA2009.PLT
 62
7
 10
8.40004532
 20
36.68941233
  0
VERTEX
  8
EGA2009.PLT
 62
7
 10
8.40513996
 20
36.71204122
  0
VERTEX
  8
EGA2009.PLT
 62
7
 10
8.40801666
 20
36.73552378
  0
VERTEX
  8
EGA2009.PLT
 62
7
 10
8.40867543
 20
36.75986000
  0
VERTEX
  8
EGA2009.PLT
 62
7
 10
8.40713249
 20
36.78415618
  0
VERTEX
  8
EGA2009.PLT
 62
7
 10
8.40340412
 20
36.80751864
  0
VERTEX
  8
EGA2009.PLT
 62
7
 10
8.39749030
 20
36.82994738
  0
VERTEX
  8
EGA2009.PLT
 62
7
 10
8.38939104
 20
36.85144240
  0
VERTEX
  8
EGA2009.PLT
 62
7
 10
8.37910634
 20
36.87200371
  0
VERTEX
  8
EGA2009.PLT
 62
7
 10
8.36663620
 20
36.89163130
  0
VERTEX
  8
EGA2009.PLT
 62
7
 10
8.35198061
 20
36.91032517
  0
VERTEX
  8
EGA2009.PLT
 62
7
 10
8.33513958
 20
36.92808533
  0
VERTEX
  8
EGA2009.PLT
 62
7
 10
8.31677900
 20
36.94426966
  0
VERTEX
  8
EGA2009.PLT
 62
7
 10
8.29756477
 20
36.95823605
  0
VERTEX
  8
EGA2009.PLT
 62
7
 10
8.27749687
 20
36.96998450
  0
VERTEX
  8
EGA2009.PLT
 62
7
 10
8.25657531
 20
36.97951501
  0
VERTEX
  8
EGA2009.PLT
 62
7
 10
8.23480008
 20
36.98682759
  0
VERTEX
  8
EGA2009.PLT
 62
7
 10
8.21217120
 20
36.99192222
  0
VERTEX
  8
EGA2009.PLT
 62
7
 10
8.18868865
 20
36.99479892
  0
SEQEND
  0
POLYLINE
  8
EGA2009.PLT
 62
7
 66
1
 70
1
  0
VERTEX
  8
EGA2009.PLT
 62
7
 10
10.35394335
 20
36.99474041
  0
VERTEX
  8
EGA2009.PLT
 62
7
 10
10.32960497
 20
36.99416695
  0
VERTEX
  8
EGA2009.PLT
 62
7
 10
10.30611248
 20
36.99137256
  0
VERTEX
  8
EGA2009.PLT
 62
7
 10
10.28346588
 20
36.98635726
  0
VERTEX
  8
EGA2009.PLT
 62
7
 10
10.26166516
 20
36.97912105
  0
VERTEX
  8
EGA2009.PLT
 62
7
 10
10.24071032
 20
36.96966392
  0
VERTEX
  8
EGA2009.PLT
 62
7
 10
10.22060137
 20
36.95798587
  0
VERTEX
  8
EGA2009.PLT
 62
7
 10
10.20133830
 20
36.94408691
  0
VERTEX
  8
EGA2009.PLT
 62
7
 10
10.18292111
 20
36.92796702
  0
VERTEX
  8
EGA2009.PLT
 62
7
 10
10.16601794
 20
36.91026601
  0
VERTEX
  8
EGA2009.PLT
 62
7
 10
10.15129692
 20
36.89162362
  0
VERTEX
  8
EGA2009.PLT
 62
7
 10
10.13875807
 20
36.87203985
  0
VERTEX
  8
EGA2009.PLT
 62
7
 10
10.12840137
 20
36.85151472
  0
VERTEX
  8
EGA2009.PLT
 62
7
 10
10.12022683
 20
36.83004821
  0
VERTEX
  8
EGA2009.PLT
 62
7
 10
10.11423445
 20
36.80764032
  0
VERTEX
  8
EGA2009.PLT
 62
7
 10
10.11042422
 20
36.78429107
  0
VERTEX
  8
EGA2009.PLT
 62
7
 10
10.10879615
 20
36.76000045
  0
VERTEX
  8
EGA2009.PLT
 62
7
 10
10.10936961
 20
36.73566207
  0
VERTEX
  8
EGA2009.PLT
 62
7
 10
10.11216399
 20
36.71216958
  0
VERTEX
  8
EGA2009.PLT
 62
7
 10
10.11717928
 20
36.68952298
  0
VERTEX
  8
EGA2009.PLT
 62
7
 10
10.12441549
 20
36.66772226
  0
VERTEX
  8
EGA2009.PLT
 62
7
 10
10.13387262
 20
36.64676742
  0
VERTEX
  8
EGA2009.PLT
 62
7
 10
10.14555067
 20
36.62665847
  0
VERTEX
  8
EGA2009.PLT
 62
7
 10
10.15944963
 20
36.60739540
  0
VERTEX
  8
EGA2009.PLT
 62
7
 10
10.17556951
 20
36.58897821
  0
VERTEX
  8
EGA2009.PLT
 62
7
 10
10.19327053
 20
36.57207504
  0
VERTEX
  8
EGA2009.PLT
 62
7
 10
10.21191292
 20
36.55735402
  0
VERTEX
  8
EGA2009.PLT
 62
7
 10
10.23149669
 20
36.54481517
  0
VERTEX
  8
EGA2009.PLT
 62
7
 10
10.25202183
 20
36.53445846
  0
VERTEX
  8
EGA2009.PLT
 62
7
 10
10.27348834
 20
36.52628392
  0
VERTEX
  8
EGA2009.PLT
 62
7
 10
10.29589623
 20
36.52029153
  0
VERTEX
  8
EGA2009.PLT
 62
7
 10
10.31924549
 20
36.51648130
  0
VERTEX
  8
EGA2009.PLT
 62
7
 10
10.34353612
 20
36.51485323
  0
VERTEX
  8
EGA2009.PLT
 62
7
 10
10.36801630
 20
36.51542438
  0
VERTEX
  8
EGA2009.PLT
 62
7
 10
10.39162524
 20
36.51821853
  0
VERTEX
  8
EGA2009.PLT
 62
7
 10
10.41436296
 20
36.52323568
  0
VERTEX
  8
EGA2009.PLT
 62
7
 10
10.43622945
 20
36.53047581
  0
VERTEX
  8
EGA2009.PLT
 62
7
 10
10.45722471
 20
36.53993894
  0
VERTEX
  8
EGA2009.PLT
 62
7
 10
10.47734875
 20
36.55162507
  0
VERTEX
  8
EGA2009.PLT
 62
7
 10
10.49660155
 20
36.56553418
  0
VERTEX
  8
EGA2009.PLT
 62
7
 10
10.51498313
 20
36.58166630
  0
VERTEX
  8
EGA2009.PLT
 62
7
 10
10.53178611
 20
36.59932903
  0
VERTEX
  8
EGA2009.PLT
 62
7
 10
10.54642039
 20
36.61794266
  0
VERTEX
  8
EGA2009.PLT
 62
7
 10
10.55888596
 20
36.63750718
  0
VERTEX
  8
EGA2009.PLT
 62
7
 10
10.56918283
 20
36.65802260
  0
VERTEX
  8
EGA2009.PLT
 62
7
 10
10.57731101
 20
36.67948891
  0
VERTEX
  8
EGA2009.PLT
 62
7
 10
10.58327048
 20
36.70190612
  0
VERTEX
  8
EGA2009.PLT
 62
7
 10
10.58706125
 20
36.72527422
  0
VERTEX
  8
EGA2009.PLT
 62
7
 10
10.58868331
 20
36.74959322
  0
VERTEX
  8
EGA2009.PLT
 62
7
 10
10.58811708
 20
36.77395967
  0
VERTEX
  8
EGA2009.PLT
 62
7
 10
10.58534296
 20
36.79747014
  0
VERTEX
  8
EGA2009.PLT
 62
7
 10
10.58036095
 20
36.82012463
  0
VERTEX
  8
EGA2009.PLT
 62
7
 10
10.57317106
 20
36.84192314
  0
VERTEX
  8
EGA2009.PLT
 62
7
 10
10.56377327
 20
36.86286567
  0
VERTEX
  8
EGA2009.PLT
 62
7
 10
10.55216760
 20
36.88295222
  0
VERTEX
  8
EGA2009.PLT
 62
7
 10
10.53835404
 20
36.90218279
  0
VERTEX
  8
EGA2009.PLT
 62
7
 10
10.52233258
 20
36.92055738
  0
VERTEX
  8
EGA2009.PLT
 62
7
 10
10.50466768
 20
36.93747122
  0
VERTEX
  8
EGA2009.PLT
 62
7
 10
10.48603599
 20
36.95220193
  0
VERTEX
  8
EGA2009.PLT
 62
7
 10
10.46643751
 20
36.96474951
  0
VERTEX
  8
EGA2009.PLT
 62
7
 10
10.44587224
 20
36.97511396
  0
VERTEX
  8
EGA2009.PLT
 62
7
 10
10.42434020
 20
36.98329527
  0
VERTEX
  8
EGA2009.PLT
 62
7
 10
10.40184136
 20
36.98929345
  0
VERTEX
  8
EGA2009.PLT
 62
7
 10
10.37837575
 20
36.99310850
  0
SEQEND
  0
POLYLINE
  8
EGA2009.PLT
 62
7
 66
1
 70
1
  0
VERTEX
  8
EGA2009.PLT
 62
7
 10
8.14686552
 20
37.95729873
  0
VERTEX
  8
EGA2009.PLT
 62
7
 10
8.12242754
 20
37.95575246
  0
VERTEX
  8
EGA2009.PLT
 62
7
 10
8.09894869
 20
37.95201968
  0
VERTEX
  8
EGA2009.PLT
 62
7
 10
8.07642897
 20
37.94610039
  0
VERTEX
  8
EGA2009.PLT
 62
7
 10
8.05486838
 20
37.93799460
  0
VERTEX
  8
EGA2009.PLT
 62
7
 10
8.03426692
 20
37.92770229
  0
VERTEX
  8
EGA2009.PLT
 62
7
 10
8.01462459
 20
37.91522348
  0
VERTEX
  8
EGA2009.PLT
 62
7
 10
7.99594138
 20
37.90055817
  0
VERTEX
  8
EGA2009.PLT
 62
7
 10
7.97821730
 20
37.88370635
  0
VERTEX
  8
EGA2009.PLT
 62
7
 10
7.96213155
 20
37.86538802
  0
VERTEX
  8
EGA2009.PLT
 62
7
 10
7.94825068
 20
37.84620597
  0
VERTEX
  8
EGA2009.PLT
 62
7
 10
7.93657468
 20
37.82616022
  0
VERTEX
  8
EGA2009.PLT
 62
7
 10
7.92710356
 20
37.80525075
  0
VERTEX
  8
EGA2009.PLT
 62
7
 10
7.91983731
 20
37.78347757
  0
VERTEX
  8
EGA2009.PLT
 62
7
 10
7.91477594
 20
37.76084068
  0
VERTEX
  8
EGA2009.PLT
 62
7
 10
7.91191944
 20
37.73734007
  0
VERTEX
  8
EGA2009.PLT
 62
7
 10
7.91126782
 20
37.71297576
  0
VERTEX
  8
EGA2009.PLT
 62
7
 10
7.91280463
 20
37.68865123
  0
VERTEX
  8
EGA2009.PLT
 62
7
 10
7.91651347
 20
37.66526999
  0
VERTEX
  8
EGA2009.PLT
 62
7
 10
7.92239434
 20
37.64283203
  0
VERTEX
  8
EGA2009.PLT
 62
7
 10
7.93044722
 20
37.62133736
  0
VERTEX
  8
EGA2009.PLT
 62
7
 10
7.94067213
 20
37.60078597
  0
VERTEX
  8
EGA2009.PLT
 62
7
 10
7.95306907
 20
37.58117788
  0
VERTEX
  8
EGA2009.PLT
 62
7
 10
7.96763802
 20
37.56251307
  0
VERTEX
  8
EGA2009.PLT
 62
7
 10
7.98437900
 20
37.54479155
  0
VERTEX
  8
EGA2009.PLT
 62
7
 10
8.00270392
 20
37.52859512
  0
VERTEX
  8
EGA2009.PLT
 62
7
 10
8.02190786
 20
37.51461862
  0
VERTEX
  8
EGA2009.PLT
 62
7
 10
8.04199081
 20
37.50286204
  0
VERTEX
  8
EGA2009.PLT
 62
7
 10
8.06295278
 20
37.49332539
  0
VERTEX
  8
EGA2009.PLT
 62
7
 10
8.08479376
 20
37.48600866
  0
VERTEX
  8
EGA2009.PLT
 62
7
 10
8.10751376
 20
37.48091186
  0
VERTEX
  8
EGA2009.PLT
 62
7
 10
8.13111278
 20
37.47803498
  0
VERTEX
  8
EGA2009.PLT
 62
7
 10
8.15559081
 20
37.47737803
  0
VERTEX
  8
EGA2009.PLT
 62
7
 10
8.17988699
 20
37.47892097
  0
VERTEX
  8
EGA2009.PLT
 62
7
 10
8.20324946
 20
37.48264934
  0
VERTEX
  8
EGA2009.PLT
 62
7
 10
8.22567821
 20
37.48856316
  0
VERTEX
  8
EGA2009.PLT
 62
7
 10
8.24717323
 20
37.49666242
  0
VERTEX
  8
EGA2009.PLT
 62
7
 10
8.26773454
 20
37.50694712
  0
VERTEX
  8
EGA2009.PLT
 62
7
 10
8.28736212
 20
37.51941726
  0
VERTEX
  8
EGA2009.PLT
 62
7
 10
8.30605599
 20
37.53407285
  0
VERTEX
  8
EGA2009.PLT
 62
7
 10
8.32381614
 20
37.55091388
  0
VERTEX
  8
EGA2009.PLT
 62
7
 10
8.34000047
 20
37.56927446
  0
VERTEX
  8
EGA2009.PLT
 62
7
 10
8.35396687
 20
37.58848869
  0
VERTEX
  8
EGA2009.PLT
 62
7
 10
8.36571532
 20
37.60855659
  0
VERTEX
  8
EGA2009.PLT
 62
7
 10
8.37524583
 20
37.62947816
  0
VERTEX
  8
EGA2009.PLT
 62
7
 10
8.38255841
 20
37.65125338
  0
VERTEX
  8
EGA2009.PLT
 62
7
 10
8.38765305
 20
37.67388227
  0
VERTEX
  8
EGA2009.PLT
 62
7
 10
8.39052975
 20
37.69736483
  0
VERTEX
  8
EGA2009.PLT
 62
7
 10
8.39118851
 20
37.72170105
  0
VERTEX
  8
EGA2009.PLT
 62
7
 10
8.38964558
 20
37.74599723
  0
VERTEX
  8
EGA2009.PLT
 62
7
 10
8.38591720
 20
37.76935969
  0
VERTEX
  8
EGA2009.PLT
 62
7
 10
8.38000338
 20
37.79178843
  0
VERTEX
  8
EGA2009.PLT
 62
7
 10
8.37190413
 20
37.81328346
  0
VERTEX
  8
EGA2009.PLT
 62
7
 10
8.36161943
 20
37.83384476
  0
VERTEX
  8
EGA2009.PLT
 62
7
 10
8.34914928
 20
37.85347235
  0
VERTEX
  8
EGA2009.PLT
 62
7
 10
8.33449369
 20
37.87216623
  0
VERTEX
  8
EGA2009.PLT
 62
7
 10
8.31765266
 20
37.88992638
  0
VERTEX
  8
EGA2009.PLT
 62
7
 10
8.29929209
 20
37.90611071
  0
VERTEX
  8
EGA2009.PLT
 62
7
 10
8.28007785
 20
37.92007710
  0
VERTEX
  8
EGA2009.PLT
 62
7
 10
8.26000995
 20
37.93182555
  0
VERTEX
  8
EGA2009.PLT
 62
7
 10
8.23908839
 20
37.94135606
  0
VERTEX
  8
EGA2009.PLT
 62
7
 10
8.21731317
 20
37.94866864
  0
VERTEX
  8
EGA2009.PLT
 62
7
 10
8.19468428
 20
37.95376327
  0
VERTEX
  8
EGA2009.PLT
 62
7
 10
8.17120173
 20
37.95663997
  0
SEQEND
  0
POLYLINE
  8
EGA2009.PLT
 62
7
 66
1
 70
1
  0
VERTEX
  8
EGA2009.PLT
 62
7
 10
8.18183552
 20
36.03382738
  0
VERTEX
  8
EGA2009.PLT
 62
7
 10
8.15739754
 20
36.03228111
  0
VERTEX
  8
EGA2009.PLT
 62
7
 10
8.13391869
 20
36.02854833
  0
VERTEX
  8
EGA2009.PLT
 62
7
 10
8.11139897
 20
36.02262905
  0
VERTEX
  8
EGA2009.PLT
 62
7
 10
8.08983838
 20
36.01452325
  0
VERTEX
  8
EGA2009.PLT
 62
7
 10
8.06923692
 20
36.00423095
  0
VERTEX
  8
EGA2009.PLT
 62
7
 10
8.04959459
 20
35.99175214
  0
VERTEX
  8
EGA2009.PLT
 62
7
 10
8.03091138
 20
35.97708682
  0
VERTEX
  8
EGA2009.PLT
 62
7
 10
8.01318730
 20
35.96023500
  0
VERTEX
  8
EGA2009.PLT
 62
7
 10
7.99710155
 20
35.94191667
  0
VERTEX
  8
EGA2009.PLT
 62
7
 10
7.98322068
 20
35.92273463
  0
VERTEX
  8
EGA2009.PLT
 62
7
 10
7.97154468
 20
35.90268887
  0
VERTEX
  8
EGA2009.PLT
 62
7
 10
7.96207356
 20
35.88177940
  0
VERTEX
  8
EGA2009.PLT
 62
7
 10
7.95480731
 20
35.86000622
  0
VERTEX
  8
EGA2009.PLT
 62
7
 10
7.94974594
 20
35.83736933
  0
VERTEX
  8
EGA2009.PLT
 62
7
 10
7.94688944
 20
35.81386873
  0
VERTEX
  8
EGA2009.PLT
 62
7
 10
7.94623782
 20
35.78950442
  0
VERTEX
  8
EGA2009.PLT
 62
7
 10
7.94777463
 20
35.76517989
  0
VERTEX
  8
EGA2009.PLT
 62
7
 10
7.95148347
 20
35.74179864
  0
VERTEX
  8
EGA2009.PLT
 62
7
 10
7.95736434
 20
35.71936068
  0
VERTEX
  8
EGA2009.PLT
 62
7
 10
7.96541722
 20
35.69786601
  0
VERTEX
  8
EGA2009.PLT
 62
7
 10
7.97564213
 20
35.67731463
  0
VERTEX
  8
EGA2009.PLT
 62
7
 10
7.98803907
 20
35.65770653
  0
VERTEX
  8
EGA2009.PLT
 62
7
 10
8.00260802
 20
35.63904173
  0
VERTEX
  8
EGA2009.PLT
 62
7
 10
8.01934900
 20
35.62132020
  0
VERTEX
  8
EGA2009.PLT
 62
7
 10
8.03767392
 20
35.60512378
  0
VERTEX
  8
EGA2009.PLT
 62
7
 10
8.05687786
 20
35.59114728
  0
VERTEX
  8
EGA2009.PLT
 62
7
 10
8.07696081
 20
35.57939070
  0
VERTEX
  8
EGA2009.PLT
 62
7
 10
8.09792278
 20
35.56985405
  0
VERTEX
  8
EGA2009.PLT
 62
7
 10
8.11976376
 20
35.56253732
  0
VERTEX
  8
EGA2009.PLT
 62
7
 10
8.14248376
 20
35.55744052
  0
VERTEX
  8
EGA2009.PLT
 62
7
 10
8.16608278
 20
35.55456364
  0
VERTEX
  8
EGA2009.PLT
 62
7
 10
8.19056081
 20
35.55390669
  0
VERTEX
  8
EGA2009.PLT
 62
7
 10
8.21485699
 20
35.55544962
  0
VERTEX
  8
EGA2009.PLT
 62
7
 10
8.23821946
 20
35.55917800
  0
VERTEX
  8
EGA2009.PLT
 62
7
 10
8.26064821
 20
35.56509181
  0
VERTEX
  8
EGA2009.PLT
 62
7
 10
8.28214323
 20
35.57319107
  0
VERTEX
  8
EGA2009.PLT
 62
7
 10
8.30270454
 20
35.58347577
  0
VERTEX
  8
EGA2009.PLT
 62
7
 10
8.32233212
 20
35.59594592
  0
VERTEX
  8
EGA2009.PLT
 62
7
 10
8.34102599
 20
35.61060150
  0
VERTEX
  8
EGA2009.PLT
 62
7
 10
8.35878614
 20
35.62744254
  0
VERTEX
  8
EGA2009.PLT
 62
7
 10
8.37497047
 20
35.64580311
  0
VERTEX
  8
EGA2009.PLT
 62
7
 10
8.38893687
 20
35.66501735
  0
VERTEX
  8
EGA2009.PLT
 62
7
 10
8.40068532
 20
35.68508525
  0
VERTEX
  8
EGA2009.PLT
 62
7
 10
8.41021583
 20
35.70600681
  0
VERTEX
  8
EGA2009.PLT
 62
7
 10
8.41752841
 20
35.72778204
  0
VERTEX
  8
EGA2009.PLT
 62
7
 10
8.42262305
 20
35.75041093
  0
VERTEX
  8
EGA2009.PLT
 62
7
 10
8.42549975
 20
35.77389349
  0
VERTEX
  8
EGA2009.PLT
 62
7
 10
8.42615851
 20
35.79822971
  0
VERTEX
  8
EGA2009.PLT
 62
7
 10
8.42461558
 20
35.82252589
  0
VERTEX
  8
EGA2009.PLT
 62
7
 10
8.42088720
 20
35.84588834
  0
VERTEX
  8
EGA2009.PLT
 62
7
 10
8.41497338
 20
35.86831709
  0
VERTEX
  8
EGA2009.PLT
 62
7
 10
8.40687413
 20
35.88981211
  0
VERTEX
  8
EGA2009.PLT
 62
7
 10
8.39658943
 20
35.91037342
  0
VERTEX
  8
EGA2009.PLT
 62
7
 10
8.38411928
 20
35.93000101
  0
VERTEX
  8
EGA2009.PLT
 62
7
 10
8.36946369
 20
35.94869488
  0
VERTEX
  8
EGA2009.PLT
 62
7
 10
8.35262266
 20
35.96645504
  0
VERTEX
  8
EGA2009.PLT
 62
7
 10
8.33426209
 20
35.98263936
  0
VERTEX
  8
EGA2009.PLT
 62
7
 10
8.31504785
 20
35.99660575
  0
VERTEX
  8
EGA2009.PLT
 62
7
 10
8.29497995
 20
36.00835421
  0
VERTEX
  8
EGA2009.PLT
 62
7
 10
8.27405839
 20
36.01788472
  0
VERTEX
  8
EGA2009.PLT
 62
7
 10
8.25228317
 20
36.02519729
  0
VERTEX
  8
EGA2009.PLT
 62
7
 10
8.22965428
 20
36.03029193
  0
VERTEX
  8
EGA2009.PLT
 62
7
 10
8.20617173
 20
36.03316863
  0
SEQEND
  0
POLYLINE
  8
EGA2009.PLT
 62
7
 66
1
 70
1
  0
VERTEX
  8
EGA2009.PLT
 62
7
 10
8.12937860
 20
38.91913978
  0
VERTEX
  8
EGA2009.PLT
 62
7
 10
8.10494063
 20
38.91759351
  0
VERTEX
  8
EGA2009.PLT
 62
7
 10
8.08146178
 20
38.91386073
  0
VERTEX
  8
EGA2009.PLT
 62
7
 10
8.05894206
 20
38.90794144
  0
VERTEX
  8
EGA2009.PLT
 62
7
 10
8.03738147
 20
38.89983565
  0
VERTEX
  8
EGA2009.PLT
 62
7
 10
8.01678000
 20
38.88954334
  0
VERTEX
  8
EGA2009.PLT
 62
7
 10
7.99713767
 20
38.87706453
  0
VERTEX
  8
EGA2009.PLT
 62
7
 10
7.97845446
 20
38.86239922
  0
VERTEX
  8
EGA2009.PLT
 62
7
 10
7.96073039
 20
38.84554740
  0
VERTEX
  8
EGA2009.PLT
 62
7
 10
7.94464464
 20
38.82722907
  0
VERTEX
  8
EGA2009.PLT
 62
7
 10
7.93076376
 20
38.80804702
  0
VERTEX
  8
EGA2009.PLT
 62
7
 10
7.91908777
 20
38.78800127
  0
VERTEX
  8
EGA2009.PLT
 62
7
 10
7.90961664
 20
38.76709180
  0
VERTEX
  8
EGA2009.PLT
 62
7
 10
7.90235039
 20
38.74531862
  0
VERTEX
  8
EGA2009.PLT
 62
7
 10
7.89728902
 20
38.72268173
  0
VERTEX
  8
EGA2009.PLT
 62
7
 10
7.89443252
 20
38.69918113
  0
VERTEX
  8
EGA2009.PLT
 62
7
 10
7.89378090
 20
38.67481681
  0
VERTEX
  8
EGA2009.PLT
 62
7
 10
7.89531772
 20
38.65049228
  0
VERTEX
  8
EGA2009.PLT
 62
7
 10
7.89902656
 20
38.62711104
  0
VERTEX
  8
EGA2009.PLT
 62
7
 10
7.90490742
 20
38.60467308
  0
VERTEX
  8
EGA2009.PLT
 62
7
 10
7.91296031
 20
38.58317841
  0
VERTEX
  8
EGA2009.PLT
 62
7
 10
7.92318522
 20
38.56262703
  0
VERTEX
  8
EGA2009.PLT
 62
7
 10
7.93558215
 20
38.54301893
  0
VERTEX
  8
EGA2009.PLT
 62
7
 10
7.95015111
 20
38.52435412
  0
VERTEX
  8
EGA2009.PLT
 62
7
 10
7.96689209
 20
38.50663260
  0
VERTEX
  8
EGA2009.PLT
 62
7
 10
7.98521701
 20
38.49043618
  0
VERTEX
  8
EGA2009.PLT
 62
7
 10
8.00442094
 20
38.47645967
  0
VERTEX
  8
EGA2009.PLT
 62
7
 10
8.02450389
 20
38.46470310
  0
VERTEX
  8
EGA2009.PLT
 62
7
 10
8.04546586
 20
38.45516644
  0
VERTEX
  8
EGA2009.PLT
 62
7
 10
8.06730684
 20
38.44784971
  0
VERTEX
  8
EGA2009.PLT
 62
7
 10
8.09002684
 20
38.44275291
  0
VERTEX
  8
EGA2009.PLT
 62
7
 10
8.11362586
 20
38.43987603
  0
VERTEX
  8
EGA2009.PLT
 62
7
 10
8.13810389
 20
38.43921909
  0
VERTEX
  8
EGA2009.PLT
 62
7
 10
8.16240008
 20
38.44076202
  0
VERTEX
  8
EGA2009.PLT
 62
7
 10
8.18576254
 20
38.44449039
  0
VERTEX
  8
EGA2009.PLT
 62
7
 10
8.20819129
 20
38.45040421
  0
VERTEX
  8
EGA2009.PLT
 62
7
 10
8.22968632
 20
38.45850347
  0
VERTEX
  8
EGA2009.PLT
 62
7
 10
8.25024762
 20
38.46878817
  0
VERTEX
  8
EGA2009.PLT
 62
7
 10
8.26987521
 20
38.48125831
  0
VERTEX
  8
EGA2009.PLT
 62
7
 10
8.28856907
 20
38.49591390
  0
VERTEX
  8
EGA2009.PLT
 62
7
 10
8.30632922
 20
38.51275493
  0
VERTEX
  8
EGA2009.PLT
 62
7
 10
8.32251356
 20
38.53111551
  0
VERTEX
  8
EGA2009.PLT
 62
7
 10
8.33647995
 20
38.55032974
  0
VERTEX
  8
EGA2009.PLT
 62
7
 10
8.34822840
 20
38.57039764
  0
VERTEX
  8
EGA2009.PLT
 62
7
 10
8.35775892
 20
38.59131921
  0
VERTEX
  8
EGA2009.PLT
 62
7
 10
8.36507149
 20
38.61309443
  0
VERTEX
  8
EGA2009.PLT
 62
7
 10
8.37016613
 20
38.63572333
  0
VERTEX
  8
EGA2009.PLT
 62
7
 10
8.37304283
 20
38.65920588
  0
VERTEX
  8
EGA2009.PLT
 62
7
 10
8.37370159
 20
38.68354211
  0
VERTEX
  8
EGA2009.PLT
 62
7
 10
8.37215866
 20
38.70783828
  0
VERTEX
  8
EGA2009.PLT
 62
7
 10
8.36843028
 20
38.73120074
  0
VERTEX
  8
EGA2009.PLT
 62
7
 10
8.36251647
 20
38.75362948
  0
VERTEX
  8
EGA2009.PLT
 62
7
 10
8.35441721
 20
38.77512451
  0
VERTEX
  8
EGA2009.PLT
 62
7
 10
8.34413251
 20
38.79568581
  0
VERTEX
  8
EGA2009.PLT
 62
7
 10
8.33166237
 20
38.81531340
  0
VERTEX
  8
EGA2009.PLT
 62
7
 10
8.31700678
 20
38.83400728
  0
VERTEX
  8
EGA2009.PLT
 62
7
 10
8.30016575
 20
38.85176743
  0
VERTEX
  8
EGA2009.PLT
 62
7
 10
8.28180517
 20
38.86795176
  0
VERTEX
  8
EGA2009.PLT
 62
7
 10
8.26259094
 20
38.88191815
  0
VERTEX
  8
EGA2009.PLT
 62
7
 10
8.24252304
 20
38.89366660
  0
VERTEX
  8
EGA2009.PLT
 62
7
 10
8.22160148
 20
38.90319712
  0
VERTEX
  8
EGA2009.PLT
 62
7
 10
8.19982625
 20
38.91050969
  0
VERTEX
  8
EGA2009.PLT
 62
7
 10
8.17719737
 20
38.91560433
  0
VERTEX
  8
EGA2009.PLT
 62
7
 10
8.15371482
 20
38.91848102
  0
SEQEND
  0
POLYLINE
  8
EGA2009.PLT
 62
7
 66
1
 70
1
  0
VERTEX
  8
EGA2009.PLT
 62
7
 10
10.39565899
 20
38.91828813
  0
VERTEX
  8
EGA2009.PLT
 62
7
 10
10.37132061
 20
38.91771466
  0
VERTEX
  8
EGA2009.PLT
 62
7
 10
10.34782812
 20
38.91492028
  0
VERTEX
  8
EGA2009.PLT
 62
7
 10
10.32518152
 20
38.90990498
  0
VERTEX
  8
EGA2009.PLT
 62
7
 10
10.30338080
 20
38.90266876
  0
VERTEX
  8
EGA2009.PLT
 62
7
 10
10.28242596
 20
38.89321163
  0
VERTEX
  8
EGA2009.PLT
 62
7
 10
10.26231701
 20
38.88153358
  0
VERTEX
  8
EGA2009.PLT
 62
7
 10
10.24305394
 20
38.86763462
  0
VERTEX
  8
EGA2009.PLT
 62
7
 10
10.22463676
 20
38.85151474
  0
VERTEX
  8
EGA2009.PLT
 62
7
 10
10.20773358
 20
38.83381372
  0
VERTEX
  8
EGA2009.PLT
 62
7
 10
10.19301256
 20
38.81517133
  0
VERTEX
  8
EGA2009.PLT
 62
7
 10
10.18047371
 20
38.79558757
  0
VERTEX
  8
EGA2009.PLT
 62
7
 10
10.17011701
 20
38.77506243
  0
VERTEX
  8
EGA2009.PLT
 62
7
 10
10.16194247
 20
38.75359592
  0
VERTEX
  8
EGA2009.PLT
 62
7
 10
10.15595009
 20
38.73118804
  0
VERTEX
  8
EGA2009.PLT
 62
7
 10
10.15213986
 20
38.70783878
  0
VERTEX
  8
EGA2009.PLT
 62
7
 10
10.15051179
 20
38.68354816
  0
VERTEX
  8
EGA2009.PLT
 62
7
 10
10.15108525
 20
38.65920979
  0
VERTEX
  8
EGA2009.PLT
 62
7
 10
10.15387963
 20
38.63571730
  0
VERTEX
  8
EGA2009.PLT
 62
7
 10
10.15889492
 20
38.61307069
  0
VERTEX
  8
EGA2009.PLT
 62
7
 10
10.16613114
 20
38.59126997
  0
VERTEX
  8
EGA2009.PLT
 62
7
 10
10.17558826
 20
38.57031513
  0
VERTEX
  8
EGA2009.PLT
 62
7
 10
10.18726631
 20
38.55020618
  0
VERTEX
  8
EGA2009.PLT
 62
7
 10
10.20116527
 20
38.53094311
  0
VERTEX
  8
EGA2009.PLT
 62
7
 10
10.21728516
 20
38.51252593
  0
VERTEX
  8
EGA2009.PLT
 62
7
 10
10.23498617
 20
38.49562275
  0
VERTEX
  8
EGA2009.PLT
 62
7
 10
10.25362856
 20
38.48090174
  0
VERTEX
  8
EGA2009.PLT
 62
7
 10
10.27321233
 20
38.46836288
  0
VERTEX
  8
EGA2009.PLT
 62
7
 10
10.29373747
 20
38.45800618
  0
VERTEX
  8
EGA2009.PLT
 62
7
 10
10.31520398
 20
38.44983163
  0
VERTEX
  8
EGA2009.PLT
 62
7
 10
10.33761187
 20
38.44383925
  0
VERTEX
  8
EGA2009.PLT
 62
7
 10
10.36096113
 20
38.44002902
  0
VERTEX
  8
EGA2009.PLT
 62
7
 10
10.38525176
 20
38.43840094
  0
VERTEX
  8
EGA2009.PLT
 62
7
 10
10.40973194
 20
38.43897210
  0
VERTEX
  8
EGA2009.PLT
 62
7
 10
10.43334089
 20
38.44176625
  0
VERTEX
  8
EGA2009.PLT
 62
7
 10
10.45607860
 20
38.44678339
  0
VERTEX
  8
EGA2009.PLT
 62
7
 10
10.47794509
 20
38.45402353
  0
VERTEX
  8
EGA2009.PLT
 62
7
 10
10.49894036
 20
38.46348666
  0
VERTEX
  8
EGA2009.PLT
 62
7
 10
10.51906439
 20
38.47517278
  0
VERTEX
  8
EGA2009.PLT
 62
7
 10
10.53831719
 20
38.48908190
  0
VERTEX
  8
EGA2009.PLT
 62
7
 10
10.55669877
 20
38.50521401
  0
VERTEX
  8
EGA2009.PLT
 62
7
 10
10.57350175
 20
38.52287674
  0
VERTEX
  8
EGA2009.PLT
 62
7
 10
10.58813603
 20
38.54149037
  0
VERTEX
  8
EGA2009.PLT
 62
7
 10
10.60060160
 20
38.56105489
  0
VERTEX
  8
EGA2009.PLT
 62
7
 10
10.61089848
 20
38.58157031
  0
VERTEX
  8
EGA2009.PLT
 62
7
 10
10.61902665
 20
38.60303662
  0
VERTEX
  8
EGA2009.PLT
 62
7
 10
10.62498612
 20
38.62545383
  0
VERTEX
  8
EGA2009.PLT
 62
7
 10
10.62877689
 20
38.64882193
  0
VERTEX
  8
EGA2009.PLT
 62
7
 10
10.63039896
 20
38.67314093
  0
VERTEX
  8
EGA2009.PLT
 62
7
 10
10.62983272
 20
38.69750738
  0
VERTEX
  8
EGA2009.PLT
 62
7
 10
10.62705860
 20
38.72101785
  0
VERTEX
  8
EGA2009.PLT
 62
7
 10
10.62207659
 20
38.74367234
  0
VERTEX
  8
EGA2009.PLT
 62
7
 10
10.61488670
 20
38.76547085
  0
VERTEX
  8
EGA2009.PLT
 62
7
 10
10.60548892
 20
38.78641338
  0
VERTEX
  8
EGA2009.PLT
 62
7
 10
10.59388324
 20
38.80649993
  0
VERTEX
  8
EGA2009.PLT
 62
7
 10
10.58006968
 20
38.82573050
  0
VERTEX
  8
EGA2009.PLT
 62
7
 10
10.56404822
 20
38.84410509
  0
VERTEX
  8
EGA2009.PLT
 62
7
 10
10.54638332
 20
38.86101894
  0
VERTEX
  8
EGA2009.PLT
 62
7
 10
10.52775163
 20
38.87574965
  0
VERTEX
  8
EGA2009.PLT
 62
7
 10
10.50815315
 20
38.88829723
  0
VERTEX
  8
EGA2009.PLT
 62
7
 10
10.48758789
 20
38.89866167
  0
VERTEX
  8
EGA2009.PLT
 62
7
 10
10.46605584
 20
38.90684299
  0
VERTEX
  8
EGA2009.PLT
 62
7
 10
10.44355701
 20
38.91284117
  0
VERTEX
  8
EGA2009.PLT
 62
7
 10
10.42009139
 20
38.91665621
  0
SEQEND
  0
POLYLINE
  8
EGA2009.PLT
 62
7
 66
1
 70
1
  0
VERTEX
  8
EGA2009.PLT
 62
7
 10
8.11192087
 20
39.87937570
  0
VERTEX
  8
EGA2009.PLT
 62
7
 10
8.08748289
 20
39.87782943
  0
VERTEX
  8
EGA2009.PLT
 62
7
 10
8.06400404
 20
39.87409665
  0
VERTEX
  8
EGA2009.PLT
 62
7
 10
8.04148432
 20
39.86817736
  0
VERTEX
  8
EGA2009.PLT
 62
7
 10
8.01992373
 20
39.86007157
  0
VERTEX
  8
EGA2009.PLT
 62
7
 10
7.99932227
 20
39.84977926
  0
VERTEX
  8
EGA2009.PLT
 62
7
 10
7.97967994
 20
39.83730045
  0
VERTEX
  8
EGA2009.PLT
 62
7
 10
7.96099673
 20
39.82263514
  0
VERTEX
  8
EGA2009.PLT
 62
7
 10
7.94327265
 20
39.80578332
  0
VERTEX
  8
EGA2009.PLT
 62
7
 10
7.92718691
 20
39.78746499
  0
VERTEX
  8
EGA2009.PLT
 62
7
 10
7.91330603
 20
39.76828294
  0
VERTEX
  8
EGA2009.PLT
 62
7
 10
7.90163003
 20
39.74823719
  0
VERTEX
  8
EGA2009.PLT
 62
7
 10
7.89215891
 20
39.72732772
  0
VERTEX
  8
EGA2009.PLT
 62
7
 10
7.88489266
 20
39.70555454
  0
VERTEX
  8
EGA2009.PLT
 62
7
 10
7.87983129
 20
39.68291765
  0
VERTEX
  8
EGA2009.PLT
 62
7
 10
7.87697479
 20
39.65941705
  0
VERTEX
  8
EGA2009.PLT
 62
7
 10
7.87632317
 20
39.63505273
  0
VERTEX
  8
EGA2009.PLT
 62
7
 10
7.87785998
 20
39.61072820
  0
VERTEX
  8
EGA2009.PLT
 62
7
 10
7.88156882
 20
39.58734696
  0
VERTEX
  8
EGA2009.PLT
 62
7
 10
7.88744969
 20
39.56490900
  0
VERTEX
  8
EGA2009.PLT
 62
7
 10
7.89550257
 20
39.54341433
  0
VERTEX
  8
EGA2009.PLT
 62
7
 10
7.90572748
 20
39.52286295
  0
VERTEX
  8
EGA2009.PLT
 62
7
 10
7.91812442
 20
39.50325485
  0
VERTEX
  8
EGA2009.PLT
 62
7
 10
7.93269337
 20
39.48459004
  0
VERTEX
  8
EGA2009.PLT
 62
7
 10
7.94943435
 20
39.46686852
  0
VERTEX
  8
EGA2009.PLT
 62
7
 10
7.96775927
 20
39.45067210
  0
VERTEX
  8
EGA2009.PLT
 62
7
 10
7.98696321
 20
39.43669559
  0
VERTEX
  8
EGA2009.PLT
 62
7
 10
8.00704616
 20
39.42493902
  0
VERTEX
  8
EGA2009.PLT
 62
7
 10
8.02800813
 20
39.41540236
  0
VERTEX
  8
EGA2009.PLT
 62
7
 10
8.04984911
 20
39.40808563
  0
VERTEX
  8
EGA2009.PLT
 62
7
 10
8.07256911
 20
39.40298883
  0
VERTEX
  8
EGA2009.PLT
 62
7
 10
8.09616813
 20
39.40011195
  0
VERTEX
  8
EGA2009.PLT
 62
7
 10
8.12064616
 20
39.39945501
  0
VERTEX
  8
EGA2009.PLT
 62
7
 10
8.14494235
 20
39.40099794
  0
VERTEX
  8
EGA2009.PLT
 62
7
 10
8.16830481
 20
39.40472631
  0
VERTEX
  8
EGA2009.PLT
 62
7
 10
8.19073356
 20
39.41064013
  0
VERTEX
  8
EGA2009.PLT
 62
7
 10
8.21222858
 20
39.41873939
  0
VERTEX
  8
EGA2009.PLT
 62
7
 10
8.23278989
 20
39.42902409
  0
VERTEX
  8
EGA2009.PLT
 62
7
 10
8.25241747
 20
39.44149423
  0
VERTEX
  8
EGA2009.PLT
 62
7
 10
8.27111134
 20
39.45614982
  0
VERTEX
  8
EGA2009.PLT
 62
7
 10
8.28887149
 20
39.47299085
  0
VERTEX
  8
EGA2009.PLT
 62
7
 10
8.30505582
 20
39.49135143
  0
VERTEX
  8
EGA2009.PLT
 62
7
 10
8.31902222
 20
39.51056566
  0
VERTEX
  8
EGA2009.PLT
 62
7
 10
8.33077067
 20
39.53063356
  0
VERTEX
  8
EGA2009.PLT
 62
7
 10
8.34030118
 20
39.55155513
  0
VERTEX
  8
EGA2009.PLT
 62
7
 10
8.34761376
 20
39.57333035
  0
VERTEX
  8
EGA2009.PLT
 62
7
 10
8.35270840
 20
39.59595925
  0
VERTEX
  8
EGA2009.PLT
 62
7
 10
8.35558510
 20
39.61944180
  0
VERTEX
  8
EGA2009.PLT
 62
7
 10
8.35624386
 20
39.64377803
  0
VERTEX
  8
EGA2009.PLT
 62
7
 10
8.35470093
 20
39.66807420
  0
VERTEX
  8
EGA2009.PLT
 62
7
 10
8.35097255
 20
39.69143666
  0
VERTEX
  8
EGA2009.PLT
 62
7
 10
8.34505874
 20
39.71386540
  0
VERTEX
  8
EGA2009.PLT
 62
7
 10
8.33695948
 20
39.73536043
  0
VERTEX
  8
EGA2009.PLT
 62
7
 10
8.32667478
 20
39.75592173
  0
VERTEX
  8
EGA2009.PLT
 62
7
 10
8.31420463
 20
39.77554932
  0
VERTEX
  8
EGA2009.PLT
 62
7
 10
8.29954905
 20
39.79424320
  0
VERTEX
  8
EGA2009.PLT
 62
7
 10
8.28270801
 20
39.81200335
  0
VERTEX
  8
EGA2009.PLT
 62
7
 10
8.26434744
 20
39.82818768
  0
VERTEX
  8
EGA2009.PLT
 62
7
 10
8.24513320
 20
39.84215407
  0
VERTEX
  8
EGA2009.PLT
 62
7
 10
8.22506530
 20
39.85390252
  0
VERTEX
  8
EGA2009.PLT
 62
7
 10
8.20414374
 20
39.86343304
  0
VERTEX
  8
EGA2009.PLT
 62
7
 10
8.18236852
 20
39.87074561
  0
VERTEX
  8
EGA2009.PLT
 62
7
 10
8.15973963
 20
39.87584025
  0
VERTEX
  8
EGA2009.PLT
 62
7
 10
8.13625708
 20
39.87871694
  0
SEQEND
  0
POLYLINE
  8
EGA2009.PLT
 62
7
 66
1
 70
1
  0
VERTEX
  8
EGA2009.PLT
 62
7
 10
10.41648200
 20
39.87845697
  0
VERTEX
  8
EGA2009.PLT
 62
7
 10
10.39214363
 20
39.87788350
  0
VERTEX
  8
EGA2009.PLT
 62
7
 10
10.36865114
 20
39.87508911
  0
VERTEX
  8
EGA2009.PLT
 62
7
 10
10.34600453
 20
39.87007381
  0
VERTEX
  8
EGA2009.PLT
 62
7
 10
10.32420381
 20
39.86283760
  0
VERTEX
  8
EGA2009.PLT
 62
7
 10
10.30324897
 20
39.85338047
  0
VERTEX
  8
EGA2009.PLT
 62
7
 10
10.28314002
 20
39.84170242
  0
VERTEX
  8
EGA2009.PLT
 62
7
 10
10.26387695
 20
39.82780346
  0
VERTEX
  8
EGA2009.PLT
 62
7
 10
10.24545977
 20
39.81168358
  0
VERTEX
  8
EGA2009.PLT
 62
7
 10
10.22855659
 20
39.79398256
  0
VERTEX
  8
EGA2009.PLT
 62
7
 10
10.21383558
 20
39.77534017
  0
VERTEX
  8
EGA2009.PLT
 62
7
 10
10.20129672
 20
39.75575640
  0
VERTEX
  8
EGA2009.PLT
 62
7
 10
10.19094002
 20
39.73523127
  0
VERTEX
  8
EGA2009.PLT
 62
7
 10
10.18276548
 20
39.71376476
  0
VERTEX
  8
EGA2009.PLT
 62
7
 10
10.17677310
 20
39.69135687
  0
VERTEX
  8
EGA2009.PLT
 62
7
 10
10.17296287
 20
39.66800762
  0
VERTEX
  8
EGA2009.PLT
 62
7
 10
10.17133481
 20
39.64371700
  0
VERTEX
  8
EGA2009.PLT
 62
7
 10
10.17190827
 20
39.61937862
  0
VERTEX
  8
EGA2009.PLT
 62
7
 10
10.17470264
 20
39.59588613
  0
VERTEX
  8
EGA2009.PLT
 62
7
 10
10.17971794
 20
39.57323953
  0
VERTEX
  8
EGA2009.PLT
 62
7
 10
10.18695415
 20
39.55143881
  0
VERTEX
  8
EGA2009.PLT
 62
7
 10
10.19641128
 20
39.53048397
  0
VERTEX
  8
EGA2009.PLT
 62
7
 10
10.20808932
 20
39.51037502
  0
VERTEX
  8
EGA2009.PLT
 62
7
 10
10.22198829
 20
39.49111195
  0
VERTEX
  8
EGA2009.PLT
 62
7
 10
10.23810817
 20
39.47269477
  0
VERTEX
  8
EGA2009.PLT
 62
7
 10
10.25580919
 20
39.45579159
  0
VERTEX
  8
EGA2009.PLT
 62
7
 10
10.27445158
 20
39.44107057
  0
VERTEX
  8
EGA2009.PLT
 62
7
 10
10.29403534
 20
39.42853172
  0
VERTEX
  8
EGA2009.PLT
 62
7
 10
10.31456048
 20
39.41817502
  0
VERTEX
  8
EGA2009.PLT
 62
7
 10
10.33602700
 20
39.41000047
  0
VERTEX
  8
EGA2009.PLT
 62
7
 10
10.35843488
 20
39.40400808
  0
VERTEX
  8
EGA2009.PLT
 62
7
 10
10.38178414
 20
39.40019785
  0
VERTEX
  8
EGA2009.PLT
 62
7
 10
10.40607477
 20
39.39856978
  0
VERTEX
  8
EGA2009.PLT
 62
7
 10
10.43055495
 20
39.39914094
  0
VERTEX
  8
EGA2009.PLT
 62
7
 10
10.45416390
 20
39.40193509
  0
VERTEX
  8
EGA2009.PLT
 62
7
 10
10.47690162
 20
39.40695223
  0
VERTEX
  8
EGA2009.PLT
 62
7
 10
10.49876811
 20
39.41419236
  0
VERTEX
  8
EGA2009.PLT
 62
7
 10
10.51976337
 20
39.42365549
  0
VERTEX
  8
EGA2009.PLT
 62
7
 10
10.53988740
 20
39.43534162
  0
VERTEX
  8
EGA2009.PLT
 62
7
 10
10.55914021
 20
39.44925073
  0
VERTEX
  8
EGA2009.PLT
 62
7
 10
10.57752178
 20
39.46538285
  0
VERTEX
  8
EGA2009.PLT
 62
7
 10
10.59432476
 20
39.48304558
  0
VERTEX
  8
EGA2009.PLT
 62
7
 10
10.60895904
 20
39.50165921
  0
VERTEX
  8
EGA2009.PLT
 62
7
 10
10.62142462
 20
39.52122373
  0
VERTEX
  8
EGA2009.PLT
 62
7
 10
10.63172149
 20
39.54173915
  0
VERTEX
  8
EGA2009.PLT
 62
7
 10
10.63984966
 20
39.56320546
  0
VERTEX
  8
EGA2009.PLT
 62
7
 10
10.64580913
 20
39.58562267
  0
VERTEX
  8
EGA2009.PLT
 62
7
 10
10.64959990
 20
39.60899077
  0
VERTEX
  8
EGA2009.PLT
 62
7
 10
10.65122197
 20
39.63330977
  0
VERTEX
  8
EGA2009.PLT
 62
7
 10
10.65065573
 20
39.65767622
  0
VERTEX
  8
EGA2009.PLT
 62
7
 10
10.64788161
 20
39.68118669
  0
VERTEX
  8
EGA2009.PLT
 62
7
 10
10.64289961
 20
39.70384118
  0
VERTEX
  8
EGA2009.PLT
 62
7
 10
10.63570971
 20
39.72563969
  0
VERTEX
  8
EGA2009.PLT
 62
7
 10
10.62631193
 20
39.74658222
  0
VERTEX
  8
EGA2009.PLT
 62
7
 10
10.61470626
 20
39.76666877
  0
VERTEX
  8
EGA2009.PLT
 62
7
 10
10.60089269
 20
39.78589934
  0
VERTEX
  8
EGA2009.PLT
 62
7
 10
10.58487124
 20
39.80427393
  0
VERTEX
  8
EGA2009.PLT
 62
7
 10
10.56720633
 20
39.82118777
  0
VERTEX
  8
EGA2009.PLT
 62
7
 10
10.54857464
 20
39.83591849
  0
VERTEX
  8
EGA2009.PLT
 62
7
 10
10.52897616
 20
39.84846607
  0
VERTEX
  8
EGA2009.PLT
 62
7
 10
10.50841090
 20
39.85883051
  0
VERTEX
  8
EGA2009.PLT
 62
7
 10
10.48687885
 20
39.86701183
  0
VERTEX
  8
EGA2009.PLT
 62
7
 10
10.46438002
 20
39.87301001
  0
VERTEX
  8
EGA2009.PLT
 62
7
 10
10.44091440
 20
39.87682505
  0
SEQEND
  0
POLYLINE
  8
EGA2009.PLT
 62
7
 66
1
 70
1
  0
VERTEX
  8
EGA2009.PLT
 62
7
 10
8.07119591
 20
42.02947386
  0
VERTEX
  8
EGA2009.PLT
 62
7
 10
8.04673386
 20
42.02837207
  0
VERTEX
  8
EGA2009.PLT
 62
7
 10
8.02319103
 20
42.02506670
  0
VERTEX
  8
EGA2009.PLT
 62
7
 10
8.00056744
 20
42.01955774
  0
VERTEX
  8
EGA2009.PLT
 62
7
 10
7.97886306
 20
42.01184521
  0
VERTEX
  8
EGA2009.PLT
 62
7
 10
7.95807791
 20
42.00192909
  0
VERTEX
  8
EGA2009.PLT
 62
7
 10
7.93821198
 20
41.98980939
  0
VERTEX
  8
EGA2009.PLT
 62
7
 10
7.91926528
 20
41.97548611
  0
VERTEX
  8
EGA2009.PLT
 62
7
 10
7.90123780
 20
41.95895925
  0
VERTEX
  8
EGA2009.PLT
 62
7
 10
7.88482172
 20
41.94093635
  0
VERTEX
  8
EGA2009.PLT
 62
7
 10
7.87059446
 20
41.92200980
  0
VERTEX
  8
EGA2009.PLT
 62
7
 10
7.85855601
 20
41.90217960
  0
VERTEX
  8
EGA2009.PLT
 62
7
 10
7.84870636
 20
41.88144575
  0
VERTEX
  8
EGA2009.PLT
 62
7
 10
7.84104553
 20
41.85980825
  0
VERTEX
  8
EGA2009.PLT
 62
7
 10
7.83557351
 20
41.83726711
  0
VERTEX
  8
EGA2009.PLT
 62
7
 10
7.83229030
 20
41.81382232
  0
VERTEX
  8
EGA2009.PLT
 62
7
 10
7.83119589
 20
41.78947388
  0
VERTEX
  8
EGA2009.PLT
 62
7
 10
7.83229030
 20
41.76512543
  0
VERTEX
  8
EGA2009.PLT
 62
7
 10
7.83557351
 20
41.74168063
  0
VERTEX
  8
EGA2009.PLT
 62
7
 10
7.84104553
 20
41.71913948
  0
VERTEX
  8
EGA2009.PLT
 62
7
 10
7.84870636
 20
41.69750197
  0
VERTEX
  8
EGA2009.PLT
 62
7
 10
7.85855601
 20
41.67676812
  0
VERTEX
  8
EGA2009.PLT
 62
7
 10
7.87059446
 20
41.65693792
  0
VERTEX
  8
EGA2009.PLT
 62
7
 10
7.88482172
 20
41.63801137
  0
VERTEX
  8
EGA2009.PLT
 62
7
 10
7.90123780
 20
41.61998847
  0
VERTEX
  8
EGA2009.PLT
 62
7
 10
7.91926528
 20
41.60346161
  0
VERTEX
  8
EGA2009.PLT
 62
7
 10
7.93821198
 20
41.58913833
  0
VERTEX
  8
EGA2009.PLT
 62
7
 10
7.95807791
 20
41.57701863
  0
VERTEX
  8
EGA2009.PLT
 62
7
 10
7.97886306
 20
41.56710252
  0
VERTEX
  8
EGA2009.PLT
 62
7
 10
8.00056744
 20
41.55938998
  0
VERTEX
  8
EGA2009.PLT
 62
7
 10
8.02319103
 20
41.55388103
  0
VERTEX
  8
EGA2009.PLT
 62
7
 10
8.04673386
 20
41.55057565
  0
VERTEX
  8
EGA2009.PLT
 62
7
 10
8.07119591
 20
41.54947386
  0
VERTEX
  8
EGA2009.PLT
 62
7
 10
8.09551612
 20
41.55057489
  0
VERTEX
  8
EGA2009.PLT
 62
7
 10
8.11894250
 20
41.55387797
  0
VERTEX
  8
EGA2009.PLT
 62
7
 10
8.14147503
 20
41.55938310
  0
VERTEX
  8
EGA2009.PLT
 62
7
 10
8.16311373
 20
41.56709029
  0
VERTEX
  8
EGA2009.PLT
 62
7
 10
8.18385860
 20
41.57699954
  0
VERTEX
  8
EGA2009.PLT
 62
7
 10
8.20370962
 20
41.58911084
  0
VERTEX
  8
EGA2009.PLT
 62
7
 10
8.22266680
 20
41.60342419
  0
VERTEX
  8
EGA2009.PLT
 62
7
 10
8.24073015
 20
41.61993960
  0
VERTEX
  8
EGA2009.PLT
 62
7
 10
8.25724556
 20
41.63800295
  0
VERTEX
  8
EGA2009.PLT
 62
7
 10
8.27155892
 20
41.65696014
  0
VERTEX
  8
EGA2009.PLT
 62
7
 10
8.28367022
 20
41.67681116
  0
VERTEX
  8
EGA2009.PLT
 62
7
 10
8.29357946
 20
41.69755602
  0
VERTEX
  8
EGA2009.PLT
 62
7
 10
8.30128665
 20
41.71919473
  0
VERTEX
  8
EGA2009.PLT
 62
7
 10
8.30679178
 20
41.74172727
  0
VERTEX
  8
EGA2009.PLT
 62
7
 10
8.31009486
 20
41.76515365
  0
VERTEX
  8
EGA2009.PLT
 62
7
 10
8.31119589
 20
41.78947388
  0
VERTEX
  8
EGA2009.PLT
 62
7
 10
8.31009486
 20
41.81379409
  0
VERTEX
  8
EGA2009.PLT
 62
7
 10
8.30679178
 20
41.83722047
  0
VERTEX
  8
EGA2009.PLT
 62
7
 10
8.30128665
 20
41.85975300
  0
VERTEX
  8
EGA2009.PLT
 62
7
 10
8.29357946
 20
41.88139170
  0
VERTEX
  8
EGA2009.PLT
 62
7
 10
8.28367022
 20
41.90213657
  0
VERTEX
  8
EGA2009.PLT
 62
7
 10
8.27155892
 20
41.92198759
  0
VERTEX
  8
EGA2009.PLT
 62
7
 10
8.25724556
 20
41.94094477
  0
VERTEX
  8
EGA2009.PLT
 62
7
 10
8.24073015
 20
41.95900812
  0
VERTEX
  8
EGA2009.PLT
 62
7
 10
8.22266680
 20
41.97552353
  0
VERTEX
  8
EGA2009.PLT
 62
7
 10
8.20370962
 20
41.98983689
  0
VERTEX
  8
EGA2009.PLT
 62
7
 10
8.18385860
 20
42.00194819
  0
VERTEX
  8
EGA2009.PLT
 62
7
 10
8.16311373
 20
42.01185743
  0
VERTEX
  8
EGA2009.PLT
 62
7
 10
8.14147503
 20
42.01956462
  0
VERTEX
  8
EGA2009.PLT
 62
7
 10
8.11894250
 20
42.02506975
  0
VERTEX
  8
EGA2009.PLT
 62
7
 10
8.09551612
 20
42.02837283
  0
SEQEND
  0
POLYLINE
  8
EGA2009.PLT
 62
7
 66
1
 70
1
  0
VERTEX
  8
EGA2009.PLT
 62
7
 10
10.45480412
 20
42.02947386
  0
VERTEX
  8
EGA2009.PLT
 62
7
 10
10.43048390
 20
42.02837283
  0
VERTEX
  8
EGA2009.PLT
 62
7
 10
10.40705752
 20
42.02506975
  0
VERTEX
  8
EGA2009.PLT
 62
7
 10
10.38452497
 20
42.01956462
  0
VERTEX
  8
EGA2009.PLT
 62
7
 10
10.36288627
 20
42.01185743
  0
VERTEX
  8
EGA2009.PLT
 62
7
 10
10.34214141
 20
42.00194819
  0
VERTEX
  8
EGA2009.PLT
 62
7
 10
10.32229038
 20
41.98983689
  0
VERTEX
  8
EGA2009.PLT
 62
7
 10
10.30333320
 20
41.97552353
  0
VERTEX
  8
EGA2009.PLT
 62
7
 10
10.28526985
 20
41.95900812
  0
VERTEX
  8
EGA2009.PLT
 62
7
 10
10.26875444
 20
41.94094477
  0
VERTEX
  8
EGA2009.PLT
 62
7
 10
10.25444108
 20
41.92198759
  0
VERTEX
  8
EGA2009.PLT
 62
7
 10
10.24232978
 20
41.90213657
  0
VERTEX
  8
EGA2009.PLT
 62
7
 10
10.23242054
 20
41.88139170
  0
VERTEX
  8
EGA2009.PLT
 62
7
 10
10.22471335
 20
41.85975300
  0
VERTEX
  8
EGA2009.PLT
 62
7
 10
10.21920822
 20
41.83722047
  0
VERTEX
  8
EGA2009.PLT
 62
7
 10
10.21590514
 20
41.81379409
  0
VERTEX
  8
EGA2009.PLT
 62
7
 10
10.21480411
 20
41.78947388
  0
VERTEX
  8
EGA2009.PLT
 62
7
 10
10.21590514
 20
41.76515365
  0
VERTEX
  8
EGA2009.PLT
 62
7
 10
10.21920822
 20
41.74172727
  0
VERTEX
  8
EGA2009.PLT
 62
7
 10
10.22471335
 20
41.71919473
  0
VERTEX
  8
EGA2009.PLT
 62
7
 10
10.23242054
 20
41.69755602
  0
VERTEX
  8
EGA2009.PLT
 62
7
 10
10.24232978
 20
41.67681116
  0
VERTEX
  8
EGA2009.PLT
 62
7
 10
10.25444108
 20
41.65696014
  0
VERTEX
  8
EGA2009.PLT
 62
7
 10
10.26875444
 20
41.63800295
  0
VERTEX
  8
EGA2009.PLT
 62
7
 10
10.28526985
 20
41.61993960
  0
VERTEX
  8
EGA2009.PLT
 62
7
 10
10.30333320
 20
41.60342419
  0
VERTEX
  8
EGA2009.PLT
 62
7
 10
10.32229038
 20
41.58911084
  0
VERTEX
  8
EGA2009.PLT
 62
7
 10
10.34214141
 20
41.57699954
  0
VERTEX
  8
EGA2009.PLT
 62
7
 10
10.36288627
 20
41.56709029
  0
VERTEX
  8
EGA2009.PLT
 62
7
 10
10.38452497
 20
41.55938310
  0
VERTEX
  8
EGA2009.PLT
 62
7
 10
10.40705752
 20
41.55387797
  0
VERTEX
  8
EGA2009.PLT
 62
7
 10
10.43048390
 20
41.55057489
  0
VERTEX
  8
EGA2009.PLT
 62
7
 10
10.45480412
 20
41.54947386
  0
VERTEX
  8
EGA2009.PLT
 62
7
 10
10.47926616
 20
41.55057565
  0
VERTEX
  8
EGA2009.PLT
 62
7
 10
10.50280898
 20
41.55388103
  0
VERTEX
  8
EGA2009.PLT
 62
7
 10
10.52543257
 20
41.55938998
  0
VERTEX
  8
EGA2009.PLT
 62
7
 10
10.54713694
 20
41.56710252
  0
VERTEX
  8
EGA2009.PLT
 62
7
 10
10.56792209
 20
41.57701863
  0
VERTEX
  8
EGA2009.PLT
 62
7
 10
10.58778802
 20
41.58913833
  0
VERTEX
  8
EGA2009.PLT
 62
7
 10
10.60673472
 20
41.60346161
  0
VERTEX
  8
EGA2009.PLT
 62
7
 10
10.62476220
 20
41.61998847
  0
VERTEX
  8
EGA2009.PLT
 62
7
 10
10.64117828
 20
41.63801137
  0
VERTEX
  8
EGA2009.PLT
 62
7
 10
10.65540554
 20
41.65693792
  0
VERTEX
  8
EGA2009.PLT
 62
7
 10
10.66744399
 20
41.67676812
  0
VERTEX
  8
EGA2009.PLT
 62
7
 10
10.67729364
 20
41.69750197
  0
VERTEX
  8
EGA2009.PLT
 62
7
 10
10.68495447
 20
41.71913948
  0
VERTEX
  8
EGA2009.PLT
 62
7
 10
10.69042649
 20
41.74168063
  0
VERTEX
  8
EGA2009.PLT
 62
7
 10
10.69370970
 20
41.76512543
  0
VERTEX
  8
EGA2009.PLT
 62
7
 10
10.69480411
 20
41.78947388
  0
VERTEX
  8
EGA2009.PLT
 62
7
 10
10.69370970
 20
41.81382232
  0
VERTEX
  8
EGA2009.PLT
 62
7
 10
10.69042649
 20
41.83726711
  0
VERTEX
  8
EGA2009.PLT
 62
7
 10
10.68495447
 20
41.85980825
  0
VERTEX
  8
EGA2009.PLT
 62
7
 10
10.67729364
 20
41.88144575
  0
VERTEX
  8
EGA2009.PLT
 62
7
 10
10.66744399
 20
41.90217960
  0
VERTEX
  8
EGA2009.PLT
 62
7
 10
10.65540554
 20
41.92200980
  0
VERTEX
  8
EGA2009.PLT
 62
7
 10
10.64117828
 20
41.94093635
  0
VERTEX
  8
EGA2009.PLT
 62
7
 10
10.62476220
 20
41.95895925
  0
VERTEX
  8
EGA2009.PLT
 62
7
 10
10.60673472
 20
41.97548611
  0
VERTEX
  8
EGA2009.PLT
 62
7
 10
10.58778802
 20
41.98980939
  0
VERTEX
  8
EGA2009.PLT
 62
7
 10
10.56792209
 20
42.00192909
  0
VERTEX
  8
EGA2009.PLT
 62
7
 10
10.54713694
 20
42.01184521
  0
VERTEX
  8
EGA2009.PLT
 62
7
 10
10.52543257
 20
42.01955774
  0
VERTEX
  8
EGA2009.PLT
 62
7
 10
10.50280898
 20
42.02506670
  0
VERTEX
  8
EGA2009.PLT
 62
7
 10
10.47926616
 20
42.02837207
  0
SEQEND
  0
POLYLINE
  8
EGA2009.PLT
 62
7
 66
1
 70
1
  0
VERTEX
  8
EGA2009.PLT
 62
7
 10
10.37480117
 20
37.95651427
  0
VERTEX
  8
EGA2009.PLT
 62
7
 10
10.35046279
 20
37.95594080
  0
VERTEX
  8
EGA2009.PLT
 62
7
 10
10.32697030
 20
37.95314642
  0
VERTEX
  8
EGA2009.PLT
 62
7
 10
10.30432370
 20
37.94813112
  0
VERTEX
  8
EGA2009.PLT
 62
7
 10
10.28252298
 20
37.94089491
  0
VERTEX
  8
EGA2009.PLT
 62
7
 10
10.26156814
 20
37.93143777
  0
VERTEX
  8
EGA2009.PLT
 62
7
 10
10.24145919
 20
37.91975973
  0
VERTEX
  8
EGA2009.PLT
 62
7
 10
10.22219612
 20
37.90586076
  0
VERTEX
  8
EGA2009.PLT
 62
7
 10
10.20377893
 20
37.88974088
  0
VERTEX
  8
EGA2009.PLT
 62
7
 10
10.18687576
 20
37.87203986
  0
VERTEX
  8
EGA2009.PLT
 62
7
 10
10.17215474
 20
37.85339747
  0
VERTEX
  8
EGA2009.PLT
 62
7
 10
10.15961589
 20
37.83381371
  0
VERTEX
  8
EGA2009.PLT
 62
7
 10
10.14925919
 20
37.81328857
  0
VERTEX
  8
EGA2009.PLT
 62
7
 10
10.14108465
 20
37.79182206
  0
VERTEX
  8
EGA2009.PLT
 62
7
 10
10.13509227
 20
37.76941418
  0
VERTEX
  8
EGA2009.PLT
 62
7
 10
10.13128204
 20
37.74606493
  0
VERTEX
  8
EGA2009.PLT
 62
7
 10
10.12965397
 20
37.72177431
  0
VERTEX
  8
EGA2009.PLT
 62
7
 10
10.13022743
 20
37.69743593
  0
VERTEX
  8
EGA2009.PLT
 62
7
 10
10.13302181
 20
37.67394344
  0
VERTEX
  8
EGA2009.PLT
 62
7
 10
10.13803710
 20
37.65129683
  0
VERTEX
  8
EGA2009.PLT
 62
7
 10
10.14527331
 20
37.62949611
  0
VERTEX
  8
EGA2009.PLT
 62
7
 10
10.15473044
 20
37.60854128
  0
VERTEX
  8
EGA2009.PLT
 62
7
 10
10.16640849
 20
37.58843233
  0
VERTEX
  8
EGA2009.PLT
 62
7
 10
10.18030745
 20
37.56916926
  0
VERTEX
  8
EGA2009.PLT
 62
7
 10
10.19642734
 20
37.55075207
  0
VERTEX
  8
EGA2009.PLT
 62
7
 10
10.21412835
 20
37.53384890
  0
VERTEX
  8
EGA2009.PLT
 62
7
 10
10.23277074
 20
37.51912788
  0
VERTEX
  8
EGA2009.PLT
 62
7
 10
10.25235451
 20
37.50658902
  0
VERTEX
  8
EGA2009.PLT
 62
7
 10
10.27287965
 20
37.49623232
  0
VERTEX
  8
EGA2009.PLT
 62
7
 10
10.29434616
 20
37.48805778
  0
VERTEX
  8
EGA2009.PLT
 62
7
 10
10.31675405
 20
37.48206539
  0
VERTEX
  8
EGA2009.PLT
 62
7
 10
10.34010331
 20
37.47825516
  0
VERTEX
  8
EGA2009.PLT
 62
7
 10
10.36439394
 20
37.47662708
  0
VERTEX
  8
EGA2009.PLT
 62
7
 10
10.38887412
 20
37.47719824
  0
VERTEX
  8
EGA2009.PLT
 62
7
 10
10.41248306
 20
37.47999239
  0
VERTEX
  8
EGA2009.PLT
 62
7
 10
10.43522078
 20
37.48500953
  0
VERTEX
  8
EGA2009.PLT
 62
7
 10
10.45708727
 20
37.49224967
  0
VERTEX
  8
EGA2009.PLT
 62
7
 10
10.47808253
 20
37.50171280
  0
VERTEX
  8
EGA2009.PLT
 62
7
 10
10.49820657
 20
37.51339892
  0
VERTEX
  8
EGA2009.PLT
 62
7
 10
10.51745937
 20
37.52730804
  0
VERTEX
  8
EGA2009.PLT
 62
7
 10
10.53584095
 20
37.54344015
  0
VERTEX
  8
EGA2009.PLT
 62
7
 10
10.55264393
 20
37.56110289
  0
VERTEX
  8
EGA2009.PLT
 62
7
 10
10.56727821
 20
37.57971651
  0
VERTEX
  8
EGA2009.PLT
 62
7
 10
10.57974378
 20
37.59928103
  0
VERTEX
  8
EGA2009.PLT
 62
7
 10
10.59004066
 20
37.61979645
  0
VERTEX
  8
EGA2009.PLT
 62
7
 10
10.59816883
 20
37.64126276
  0
VERTEX
  8
EGA2009.PLT
 62
7
 10
10.60412830
 20
37.66367997
  0
VERTEX
  8
EGA2009.PLT
 62
7
 10
10.60791907
 20
37.68704808
  0
VERTEX
  8
EGA2009.PLT
 62
7
 10
10.60954114
 20
37.71136708
  0
VERTEX
  8
EGA2009.PLT
 62
7
 10
10.60897490
 20
37.73573353
  0
VERTEX
  8
EGA2009.PLT
 62
7
 10
10.60620078
 20
37.75924399
  0
VERTEX
  8
EGA2009.PLT
 62
7
 10
10.60121877
 20
37.78189848
  0
VERTEX
  8
EGA2009.PLT
 62
7
 10
10.59402888
 20
37.80369700
  0
VERTEX
  8
EGA2009.PLT
 62
7
 10
10.58463110
 20
37.82463953
  0
VERTEX
  8
EGA2009.PLT
 62
7
 10
10.57302542
 20
37.84472608
  0
VERTEX
  8
EGA2009.PLT
 62
7
 10
10.55921186
 20
37.86395664
  0
VERTEX
  8
EGA2009.PLT
 62
7
 10
10.54319040
 20
37.88233123
  0
VERTEX
  8
EGA2009.PLT
 62
7
 10
10.52552550
 20
37.89924508
  0
VERTEX
  8
EGA2009.PLT
 62
7
 10
10.50689381
 20
37.91397579
  0
VERTEX
  8
EGA2009.PLT
 62
7
 10
10.48729533
 20
37.92652337
  0
VERTEX
  8
EGA2009.PLT
 62
7
 10
10.46673007
 20
37.93688782
  0
VERTEX
  8
EGA2009.PLT
 62
7
 10
10.44519802
 20
37.94506913
  0
VERTEX
  8
EGA2009.PLT
 62
7
 10
10.42269919
 20
37.95106731
  0
VERTEX
  8
EGA2009.PLT
 62
7
 10
10.39923357
 20
37.95488236
  0
SEQEND
  0
POLYLINE
  8
EGA2009.PLT
 62
7
 66
1
 70
1
  0
VERTEX
  8
EGA2009.PLT
 62
7
 10
9.34200000
 20
42.86800000
  0
VERTEX
  8
EGA2009.PLT
 62
7
 10
9.34200000
 20
41.77300000
  0
VERTEX
  8
EGA2009.PLT
 62
7
 10
9.39281250
 20
41.84776563
  0
VERTEX
  8
EGA2009.PLT
 62
7
 10
9.44025000
 20
41.92637500
  0
VERTEX
  8
EGA2009.PLT
 62
7
 10
9.48431250
 20
42.00854688
  0
VERTEX
  8
EGA2009.PLT
 62
7
 10
9.52500000
 20
42.09400000
  0
VERTEX
  8
EGA2009.PLT
 62
7
 10
9.55382813
 20
42.16267188
  0
VERTEX
  8
EGA2009.PLT
 62
7
 10
9.57881250
 20
42.22993750
  0
VERTEX
  8
EGA2009.PLT
 62
7
 10
9.59995313
 20
42.29579688
  0
VERTEX
  8
EGA2009.PLT
 62
7
 10
9.61725000
 20
42.36025000
  0
VERTEX
  8
EGA2009.PLT
 62
7
 10
9.63070313
 20
42.42329687
  0
VERTEX
  8
EGA2009.PLT
 62
7
 10
9.64031250
 20
42.48493750
  0
VERTEX
  8
EGA2009.PLT
 62
7
 10
9.64607813
 20
42.54517188
  0
VERTEX
  8
EGA2009.PLT
 62
7
 10
9.64800000
 20
42.60400000
  0
VERTEX
  8
EGA2009.PLT
 62
7
 10
9.64593750
 20
42.65928125
  0
VERTEX
  8
EGA2009.PLT
 62
7
 10
9.63975000
 20
42.71100000
  0
VERTEX
  8
EGA2009.PLT
 62
7
 10
9.62943750
 20
42.75896875
  0
VERTEX
  8
EGA2009.PLT
 62
7
 10
9.61500000
 20
42.80300000
  0
VERTEX
  8
EGA2009.PLT
 62
7
 10
9.60671875
 20
42.81800000
  0
VERTEX
  8
EGA2009.PLT
 62
7
 10
9.59525000
 20
42.83150000
  0
VERTEX
  8
EGA2009.PLT
 62
7
 10
9.58040625
 20
42.84350000
  0
VERTEX
  8
EGA2009.PLT
 62
7
 10
9.56200000
 20
42.85400000
  0
VERTEX
  8
EGA2009.PLT
 62
7
 10
9.53820313
 20
42.86303125
  0
VERTEX
  8
EGA2009.PLT
 62
7
 10
9.51187500
 20
42.86925000
  0
VERTEX
  8
EGA2009.PLT
 62
7
 10
9.48310937
 20
42.87284375
  0
VERTEX
  8
EGA2009.PLT
 62
7
 10
9.45200000
 20
42.87400000
  0
VERTEX
  8
EGA2009.PLT
 62
7
 10
9.39212500
 20
42.87250000
  0
SEQEND
  0
ENDSEC
  0
EOF
