  0
SECTION
  2
ENTITIES
  0
POLYLINE
  8
0
 62
7
 66
1
 70
1
  0
VERTEX
  8
0
 62
7
 10
7.74020026
 20
16.04325679
  0
VERTEX
  8
0
 62
7
 10
7.74020026
 20
6.44000000
  0
VERTEX
  8
0
 62
7
 10
7.72888451
 20
6.49160887
  0
VERTEX
  8
0
 62
7
 10
7.71491726
 20
6.54224351
  0
VERTEX
  8
0
 62
7
 10
7.69837885
 20
6.59181353
  0
VERTEX
  8
0
 62
7
 10
7.67934964
 20
6.64022855
  0
VERTEX
  8
0
 62
7
 10
7.65790997
 20
6.68739816
  0
VERTEX
  8
0
 62
7
 10
7.63414020
 20
6.73323198
  0
VERTEX
  8
0
 62
7
 10
7.60812067
 20
6.77763961
  0
VERTEX
  8
0
 62
7
 10
7.57993172
 20
6.82053066
  0
VERTEX
  8
0
 62
7
 10
7.53922682
 20
6.90620772
  0
VERTEX
  8
0
 62
7
 10
7.49557915
 20
6.98910523
  0
VERTEX
  8
0
 62
7
 10
7.44905902
 20
7.06931608
  0
VERTEX
  8
0
 62
7
 10
7.39973674
 20
7.14693319
  0
VERTEX
  8
0
 62
7
 10
7.34768261
 20
7.22204944
  0
VERTEX
  8
0
 62
7
 10
7.29296693
 20
7.29475775
  0
VERTEX
  8
0
 62
7
 10
7.23566001
 20
7.36515102
  0
VERTEX
  8
0
 62
7
 10
7.17583216
 20
7.43332214
  0
VERTEX
  8
0
 62
7
 10
7.11355368
 20
7.49936404
  0
VERTEX
  8
0
 62
7
 10
7.04889487
 20
7.56336959
  0
VERTEX
  8
0
 62
7
 10
6.98192604
 20
7.62543172
  0
VERTEX
  8
0
 62
7
 10
6.91271749
 20
7.68564332
  0
VERTEX
  8
0
 62
7
 10
6.84133954
 20
7.74409730
  0
VERTEX
  8
0
 62
7
 10
6.76786248
 20
7.80088656
  0
VERTEX
  8
0
 62
7
 10
6.69235662
 20
7.85610399
  0
VERTEX
  8
0
 62
7
 10
6.61489226
 20
7.90984252
  0
VERTEX
  8
0
 62
7
 10
6.53479816
 20
7.96246076
  0
VERTEX
  8
0
 62
7
 10
6.45269535
 20
8.01228690
  0
VERTEX
  8
0
 62
7
 10
6.36866418
 20
8.05926066
  0
VERTEX
  8
0
 62
7
 10
6.28278499
 20
8.10332179
  0
VERTEX
  8
0
 62
7
 10
6.19513813
 20
8.14441002
  0
VERTEX
  8
0
 62
7
 10
6.10580395
 20
8.18246509
  0
VERTEX
  8
0
 62
7
 10
6.01486280
 20
8.21742675
  0
VERTEX
  8
0
 62
7
 10
5.92239503
 20
8.24923472
  0
VERTEX
  8
0
 62
7
 10
5.85427412
 20
8.26570178
  0
VERTEX
  8
0
 62
7
 10
5.78535726
 20
8.27820539
  0
VERTEX
  8
0
 62
7
 10
5.71585285
 20
8.28683972
  0
VERTEX
  8
0
 62
7
 10
5.64596929
 20
8.29169893
  0
VERTEX
  8
0
 62
7
 10
5.57591499
 20
8.29287716
  0
VERTEX
  8
0
 62
7
 10
5.50589836
 20
8.29046859
  0
VERTEX
  8
0
 62
7
 10
5.43612779
 20
8.28456736
  0
VERTEX
  8
0
 62
7
 10
5.36681170
 20
8.27526765
  0
VERTEX
  8
0
 62
7
 10
5.29815848
 20
8.26266360
  0
VERTEX
  8
0
 62
7
 10
5.23037654
 20
8.24684938
  0
VERTEX
  8
0
 62
7
 10
5.16367428
 20
8.22791914
  0
VERTEX
  8
0
 62
7
 10
5.09826011
 20
8.20596704
  0
VERTEX
  8
0
 62
7
 10
5.03434244
 20
8.18108724
  0
VERTEX
  8
0
 62
7
 10
4.97212966
 20
8.15337390
  0
VERTEX
  8
0
 62
7
 10
4.91183017
 20
8.12292118
  0
VERTEX
  8
0
 62
7
 10
4.85365239
 20
8.08982323
  0
VERTEX
  8
0
 62
7
 10
4.80122560
 20
8.05715967
  0
VERTEX
  8
0
 62
7
 10
4.75040955
 20
8.02335993
  0
VERTEX
  8
0
 62
7
 10
4.70132852
 20
7.98829219
  0
VERTEX
  8
0
 62
7
 10
4.65410681
 20
7.95182463
  0
VERTEX
  8
0
 62
7
 10
4.60886870
 20
7.91382542
  0
VERTEX
  8
0
 62
7
 10
4.56573849
 20
7.87416275
  0
VERTEX
  8
0
 62
7
 10
4.52484046
 20
7.83270479
  0
VERTEX
  8
0
 62
7
 10
4.48629890
 20
7.78931972
  0
VERTEX
  8
0
 62
7
 10
4.45023810
 20
7.74387571
  0
VERTEX
  8
0
 62
7
 10
4.41678235
 20
7.69624096
  0
VERTEX
  8
0
 62
7
 10
4.38605594
 20
7.64628363
  0
VERTEX
  8
0
 62
7
 10
4.35818316
 20
7.59387191
  0
VERTEX
  8
0
 62
7
 10
4.33328830
 20
7.53887396
  0
VERTEX
  8
0
 62
7
 10
4.31149564
 20
7.48115798
  0
VERTEX
  8
0
 62
7
 10
4.29292948
 20
7.42059213
  0
VERTEX
  8
0
 62
7
 10
4.27771410
 20
7.35704460
  0
VERTEX
  8
0
 62
7
 10
4.28714166
 20
17.05200586
  0
VERTEX
  8
0
 62
7
 10
4.29049956
 20
17.11013133
  0
VERTEX
  8
0
 62
7
 10
4.30050630
 20
17.16701139
  0
VERTEX
  8
0
 62
7
 10
4.31706145
 20
17.22188274
  0
VERTEX
  8
0
 62
7
 10
4.34006456
 20
17.27398207
  0
VERTEX
  8
0
 62
7
 10
4.36941521
 20
17.32254607
  0
VERTEX
  8
0
 62
7
 10
4.40501296
 20
17.36681141
  0
VERTEX
  8
0
 62
7
 10
4.44675737
 20
17.40601480
  0
VERTEX
  8
0
 62
7
 10
4.49454801
 20
17.43939292
  0
VERTEX
  8
0
 62
7
 10
4.54159689
 20
17.46572632
  0
VERTEX
  8
0
 62
7
 10
4.58983970
 20
17.48952371
  0
VERTEX
  8
0
 62
7
 10
4.63924505
 20
17.51090061
  0
VERTEX
  8
0
 62
7
 10
4.68978156
 20
17.52997250
  0
VERTEX
  8
0
 62
7
 10
4.74141784
 20
17.54685490
  0
VERTEX
  8
0
 62
7
 10
4.79412250
 20
17.56166330
  0
VERTEX
  8
0
 62
7
 10
4.84786416
 20
17.57451321
  0
VERTEX
  8
0
 62
7
 10
4.90261143
 20
17.58552012
  0
VERTEX
  8
0
 62
7
 10
4.95833293
 20
17.59479954
  0
VERTEX
  8
0
 62
7
 10
5.01499727
 20
17.60246697
  0
VERTEX
  8
0
 62
7
 10
5.07257307
 20
17.60863790
  0
VERTEX
  8
0
 62
7
 10
5.13102893
 20
17.61342785
  0
VERTEX
  8
0
 62
7
 10
5.19033347
 20
17.61695230
  0
VERTEX
  8
0
 62
7
 10
5.25045530
 20
17.61932677
  0
VERTEX
  8
0
 62
7
 10
5.31136305
 20
17.62066675
  0
VERTEX
  8
0
 62
7
 10
5.37302532
 20
17.62108774
  0
VERTEX
  8
0
 62
7
 10
5.44625380
 20
17.61918239
  0
VERTEX
  8
0
 62
7
 10
5.52051175
 20
17.61359859
  0
VERTEX
  8
0
 62
7
 10
5.59556314
 20
17.60453469
  0
VERTEX
  8
0
 62
7
 10
5.67117195
 20
17.59218905
  0
VERTEX
  8
0
 62
7
 10
5.74710215
 20
17.57676004
  0
VERTEX
  8
0
 62
7
 10
5.82311772
 20
17.55844601
  0
VERTEX
  8
0
 62
7
 10
5.89898264
 20
17.53744534
  0
VERTEX
  8
0
 62
7
 10
5.97446088
 20
17.51395636
  0
VERTEX
  8
0
 62
7
 10
6.04931642
 20
17.48817746
  0
VERTEX
  8
0
 62
7
 10
6.12331323
 20
17.46030698
  0
VERTEX
  8
0
 62
7
 10
6.19621530
 20
17.43054328
  0
VERTEX
  8
0
 62
7
 10
6.26778659
 20
17.39908474
  0
VERTEX
  8
0
 62
7
 10
6.33779109
 20
17.36612971
  0
VERTEX
  8
0
 62
7
 10
6.40599277
 20
17.33187654
  0
VERTEX
  8
0
 62
7
 10
6.47215560
 20
17.29652360
  0
VERTEX
  8
0
 62
7
 10
6.53604357
 20
17.26026926
  0
VERTEX
  8
0
 62
7
 10
6.61782352
 20
17.21120664
  0
VERTEX
  8
0
 62
7
 10
6.69971520
 20
17.16027718
  0
VERTEX
  8
0
 62
7
 10
6.78144870
 20
17.10724108
  0
VERTEX
  8
0
 62
7
 10
6.86275410
 20
17.05185855
  0
VERTEX
  8
0
 62
7
 10
6.94336146
 20
16.99388980
  0
VERTEX
  8
0
 62
7
 10
7.02300088
 20
16.93309505
  0
VERTEX
  8
0
 62
7
 10
7.10140243
 20
16.86923449
  0
VERTEX
  8
0
 62
7
 10
7.17829618
 20
16.80206835
  0
VERTEX
  8
0
 62
7
 10
7.25341223
 20
16.73135683
  0
VERTEX
  8
0
 62
7
 10
7.32648064
 20
16.65686014
  0
VERTEX
  8
0
 62
7
 10
7.39723150
 20
16.57833848
  0
VERTEX
  8
0
 62
7
 10
7.46539489
 20
16.49555208
  0
VERTEX
  8
0
 62
7
 10
7.53070088
 20
16.40826114
  0
VERTEX
  8
0
 62
7
 10
7.59287955
 20
16.31622587
  0
VERTEX
  8
0
 62
7
 10
7.65166099
 20
16.21920648
  0
VERTEX
  8
0
 62
7
 10
7.70677527
 20
16.11696318
  0
VERTEX
  8
0
 62
7
 10
7.72252359
 20
16.07914581
  0
VERTEX
  8
0
 62
7
 10
7.74020026
 20
16.04325679
  0
SEQEND
  0
POLYLINE
  8
0
 62
7
 66
1
 70
1
  0
VERTEX
  8
0
 62
7
 10
5.21304653
 20
8.13332150
  0
VERTEX
  8
0
 62
7
 10
5.12635381
 20
8.10332304
  0
VERTEX
  8
0
 62
7
 10
5.04257372
 20
8.06865432
  0
VERTEX
  8
0
 62
7
 10
4.96196741
 20
8.02938565
  0
VERTEX
  8
0
 62
7
 10
4.88479599
 20
7.98558733
  0
VERTEX
  8
0
 62
7
 10
4.81132060
 20
7.93732967
  0
VERTEX
  8
0
 62
7
 10
4.74180238
 20
7.88468296
  0
VERTEX
  8
0
 62
7
 10
4.67650246
 20
7.82771753
  0
VERTEX
  8
0
 62
7
 10
4.61568196
 20
7.76650366
  0
VERTEX
  8
0
 62
7
 10
4.58671109
 20
7.73432596
  0
VERTEX
  8
0
 62
7
 10
4.55895422
 20
7.70111502
  0
VERTEX
  8
0
 62
7
 10
4.53244025
 20
7.66688215
  0
VERTEX
  8
0
 62
7
 10
4.50719805
 20
7.63163865
  0
VERTEX
  8
0
 62
7
 10
4.48325649
 20
7.59539581
  0
VERTEX
  8
0
 62
7
 10
4.46064444
 20
7.55816493
  0
VERTEX
  8
0
 62
7
 10
4.43939079
 20
7.51995732
  0
VERTEX
  8
0
 62
7
 10
4.41952441
 20
7.48078427
  0
VERTEX
  8
0
 62
7
 10
4.40107417
 20
7.44065709
  0
VERTEX
  8
0
 62
7
 10
4.38406894
 20
7.39958706
  0
VERTEX
  8
0
 62
7
 10
4.36853761
 20
7.35758549
  0
VERTEX
  8
0
 62
7
 10
4.35450905
 20
7.31466368
  0
VERTEX
  8
0
 62
7
 10
4.34201214
 20
7.27083293
  0
VERTEX
  8
0
 62
7
 10
4.33107574
 20
7.22610453
  0
VERTEX
  8
0
 62
7
 10
4.32172873
 20
7.18048979
  0
VERTEX
  8
0
 62
7
 10
4.31400000
 20
7.13400000
  0
VERTEX
  8
0
 62
7
 10
4.30725072
 20
7.09812438
  0
VERTEX
  8
0
 62
7
 10
4.30242981
 20
7.06232911
  0
VERTEX
  8
0
 62
7
 10
4.29953726
 20
7.02637314
  0
VERTEX
  8
0
 62
7
 10
4.29857308
 20
6.99001543
  0
VERTEX
  8
0
 62
7
 10
4.30008464
 20
6.94443437
  0
VERTEX
  8
0
 62
7
 10
4.30455905
 20
6.89967689
  0
VERTEX
  8
0
 62
7
 10
4.31190592
 20
6.85584342
  0
VERTEX
  8
0
 62
7
 10
4.32203485
 20
6.81303439
  0
VERTEX
  8
0
 62
7
 10
4.33485547
 20
6.77135024
  0
VERTEX
  8
0
 62
7
 10
4.35027736
 20
6.73089140
  0
VERTEX
  8
0
 62
7
 10
4.36821015
 20
6.69175832
  0
VERTEX
  8
0
 62
7
 10
4.38856344
 20
6.65405142
  0
VERTEX
  8
0
 62
7
 10
4.42847783
 20
6.60567031
  0
VERTEX
  8
0
 62
7
 10
4.47101108
 20
6.55959168
  0
VERTEX
  8
0
 62
7
 10
4.51605020
 20
6.51592853
  0
VERTEX
  8
0
 62
7
 10
4.56348220
 20
6.47479384
  0
VERTEX
  8
0
 62
7
 10
4.61319409
 20
6.43630062
  0
VERTEX
  8
0
 62
7
 10
4.66507288
 20
6.40056184
  0
VERTEX
  8
0
 62
7
 10
4.71900557
 20
6.36769050
  0
VERTEX
  8
0
 62
7
 10
4.77487919
 20
6.33779959
  0
VERTEX
  8
0
 62
7
 10
4.83258074
 20
6.31100210
  0
VERTEX
  8
0
 62
7
 10
4.89199722
 20
6.28741102
  0
VERTEX
  8
0
 62
7
 10
4.95301566
 20
6.26713933
  0
VERTEX
  8
0
 62
7
 10
5.01552305
 20
6.25030004
  0
VERTEX
  8
0
 62
7
 10
5.07940641
 20
6.23700612
  0
VERTEX
  8
0
 62
7
 10
5.14455275
 20
6.22737058
  0
VERTEX
  8
0
 62
7
 10
5.21084908
 20
6.22150639
  0
VERTEX
  8
0
 62
7
 10
5.27818241
 20
6.21952655
  0
VERTEX
  8
0
 62
7
 10
5.36065014
 20
6.22186335
  0
VERTEX
  8
0
 62
7
 10
5.43960261
 20
6.22890055
  0
VERTEX
  8
0
 62
7
 10
5.51594376
 20
6.24067830
  0
VERTEX
  8
0
 62
7
 10
5.59057751
 20
6.25723680
  0
VERTEX
  8
0
 62
7
 10
5.66440777
 20
6.27861620
  0
VERTEX
  8
0
 62
7
 10
5.73833846
 20
6.30485669
  0
VERTEX
  8
0
 62
7
 10
5.81327352
 20
6.33599845
  0
VERTEX
  8
0
 62
7
 10
5.89011684
 20
6.37208163
  0
VERTEX
  8
0
 62
7
 10
5.91328380
 20
6.38412241
  0
VERTEX
  8
0
 62
7
 10
5.93640932
 20
6.39709848
  0
VERTEX
  8
0
 62
7
 10
5.95935154
 20
6.41100108
  0
VERTEX
  8
0
 62
7
 10
5.98196861
 20
6.42582141
  0
VERTEX
  8
0
 62
7
 10
6.00411865
 20
6.44155068
  0
VERTEX
  8
0
 62
7
 10
6.02565980
 20
6.45818011
  0
VERTEX
  8
0
 62
7
 10
6.04645019
 20
6.47570090
  0
VERTEX
  8
0
 62
7
 10
6.06634796
 20
6.49410427
  0
VERTEX
  8
0
 62
7
 10
6.08521125
 20
6.51338144
  0
VERTEX
  8
0
 62
7
 10
6.10289818
 20
6.53352360
  0
VERTEX
  8
0
 62
7
 10
6.11926689
 20
6.55452198
  0
VERTEX
  8
0
 62
7
 10
6.13417552
 20
6.57636778
  0
VERTEX
  8
0
 62
7
 10
6.14748220
 20
6.59905222
  0
VERTEX
  8
0
 62
7
 10
6.15904506
 20
6.62256652
  0
VERTEX
  8
0
 62
7
 10
6.16872225
 20
6.64690187
  0
VERTEX
  8
0
 62
7
 10
6.17637189
 20
6.67204949
  0
VERTEX
  8
0
 62
7
 10
6.18172846
 20
6.70986687
  0
VERTEX
  8
0
 62
7
 10
6.18322830
 20
6.74832704
  0
VERTEX
  8
0
 62
7
 10
6.18070234
 20
6.79395831
  0
VERTEX
  8
0
 62
7
 10
6.17330525
 20
6.83810313
  0
VERTEX
  8
0
 62
7
 10
6.16130821
 20
6.88048029
  0
VERTEX
  8
0
 62
7
 10
6.14498239
 20
6.92080856
  0
VERTEX
  8
0
 62
7
 10
6.12459898
 20
6.95880672
  0
VERTEX
  8
0
 62
7
 10
6.10042913
 20
6.99419355
  0
VERTEX
  8
0
 62
7
 10
6.07274404
 20
7.02668784
  0
VERTEX
  8
0
 62
7
 10
6.04181488
 20
7.05600836
  0
VERTEX
  8
0
 62
7
 10
5.99919835
 20
7.09296366
  0
VERTEX
  8
0
 62
7
 10
5.95317705
 20
7.12587141
  0
VERTEX
  8
0
 62
7
 10
5.90404225
 20
7.15446042
  0
VERTEX
  8
0
 62
7
 10
5.85208521
 20
7.17845952
  0
VERTEX
  8
0
 62
7
 10
5.79759718
 20
7.19759754
  0
VERTEX
  8
0
 62
7
 10
5.74086944
 20
7.21160329
  0
VERTEX
  8
0
 62
7
 10
5.68219325
 20
7.22020561
  0
VERTEX
  8
0
 62
7
 10
5.62185987
 20
7.22313331
  0
VERTEX
  8
0
 62
7
 10
5.56344481
 20
7.22040146
  0
VERTEX
  8
0
 62
7
 10
5.50662668
 20
7.21236660
  0
VERTEX
  8
0
 62
7
 10
5.45163648
 20
7.19926979
  0
VERTEX
  8
0
 62
7
 10
5.39870521
 20
7.18135207
  0
VERTEX
  8
0
 62
7
 10
5.34806387
 20
7.15885448
  0
VERTEX
  8
0
 62
7
 10
5.29994347
 20
7.13201807
  0
VERTEX
  8
0
 62
7
 10
5.25457501
 20
7.10108388
  0
VERTEX
  8
0
 62
7
 10
5.21218948
 20
7.06629297
  0
VERTEX
  8
0
 62
7
 10
5.21304653
 20
8.13332150
  0
SEQEND
  0
POLYLINE
  8
0
 62
7
 66
1
 70
1
  0
VERTEX
  8
0
 62
7
 10
5.30942820
 20
7.26022587
  0
VERTEX
  8
0
 62
7
 10
5.31028526
 20
8.15755830
  0
VERTEX
  8
0
 62
7
 10
5.34524356
 20
8.16953692
  0
VERTEX
  8
0
 62
7
 10
5.38072414
 20
8.17978806
  0
VERTEX
  8
0
 62
7
 10
5.41676715
 20
8.18835187
  0
VERTEX
  8
0
 62
7
 10
5.45341278
 20
8.19526854
  0
VERTEX
  8
0
 62
7
 10
5.49070119
 20
8.20057824
  0
VERTEX
  8
0
 62
7
 10
5.52867257
 20
8.20432114
  0
VERTEX
  8
0
 62
7
 10
5.56736709
 20
8.20653742
  0
VERTEX
  8
0
 62
7
 10
5.60682491
 20
8.20726726
  0
VERTEX
  8
0
 62
7
 10
5.68623102
 20
8.20517485
  0
VERTEX
  8
0
 62
7
 10
5.76303585
 20
8.19856283
  0
VERTEX
  8
0
 62
7
 10
5.83712892
 20
8.18692903
  0
VERTEX
  8
0
 62
7
 10
5.90839974
 20
8.16977127
  0
VERTEX
  8
0
 62
7
 10
5.97673785
 20
8.14658737
  0
VERTEX
  8
0
 62
7
 10
6.04203275
 20
8.11687516
  0
VERTEX
  8
0
 62
7
 10
6.10417397
 20
8.08013244
  0
VERTEX
  8
0
 62
7
 10
6.16305103
 20
8.03585705
  0
VERTEX
  8
0
 62
7
 10
6.16819334
 20
7.06139003
  0
VERTEX
  8
0
 62
7
 10
6.13401843
 20
7.10317127
  0
VERTEX
  8
0
 62
7
 10
6.09534400
 20
7.14109578
  0
VERTEX
  8
0
 62
7
 10
6.04650046
 20
7.18258910
  0
VERTEX
  8
0
 62
7
 10
5.99401111
 20
7.21946238
  0
VERTEX
  8
0
 62
7
 10
5.93816720
 20
7.25143440
  0
VERTEX
  8
0
 62
7
 10
5.87926001
 20
7.27822394
  0
VERTEX
  8
0
 62
7
 10
5.81758079
 20
7.29954978
  0
VERTEX
  8
0
 62
7
 10
5.75342081
 20
7.31513070
  0
VERTEX
  8
0
 62
7
 10
5.68707134
 20
7.32468548
  0
VERTEX
  8
0
 62
7
 10
5.61882363
 20
7.32793290
  0
VERTEX
  8
0
 62
7
 10
5.57666910
 20
7.32699215
  0
VERTEX
  8
0
 62
7
 10
5.53564950
 20
7.32410295
  0
VERTEX
  8
0
 62
7
 10
5.49569452
 20
7.31916487
  0
VERTEX
  8
0
 62
7
 10
5.45673385
 20
7.31207746
  0
VERTEX
  8
0
 62
7
 10
5.41869719
 20
7.30274029
  0
VERTEX
  8
0
 62
7
 10
5.38151423
 20
7.29105292
  0
VERTEX
  8
0
 62
7
 10
5.34511467
 20
7.27691493
  0
VERTEX
  8
0
 62
7
 10
5.30942820
 20
7.26022587
  0
SEQEND
  0
POLYLINE
  8
0
 62
7
 66
1
 70
1
  0
VERTEX
  8
0
 62
7
 10
17.02300000
 20
16.69300000
  0
VERTEX
  8
0
 62
7
 10
17.02900000
 20
16.68600000
  0
VERTEX
  8
0
 62
7
 10
17.05376563
 20
16.65595313
  0
VERTEX
  8
0
 62
7
 10
17.08462500
 20
16.62487500
  0
VERTEX
  8
0
 62
7
 10
17.12167188
 20
16.59585938
  0
VERTEX
  8
0
 62
7
 10
17.16500000
 20
16.57200000
  0
VERTEX
  8
0
 62
7
 10
17.21000000
 20
16.55598438
  0
VERTEX
  8
0
 62
7
 10
17.25500000
 20
16.54512500
  0
VERTEX
  8
0
 62
7
 10
17.30000000
 20
16.53895313
  0
VERTEX
  8
0
 62
7
 10
17.34500000
 20
16.53700000
  0
VERTEX
  8
0
 62
7
 10
17.37987500
 20
16.53837500
  0
VERTEX
  8
0
 62
7
 10
17.41400000
 20
16.54200000
  0
VERTEX
  8
0
 62
7
 10
17.44700000
 20
16.54600000
  0
VERTEX
  8
0
 62
7
 10
17.48900000
 20
16.55000000
  0
VERTEX
  8
0
 62
7
 10
17.50300000
 20
16.55000000
  0
VERTEX
  8
0
 62
7
 10
17.53700000
 20
16.53100000
  0
VERTEX
  8
0
 62
7
 10
17.55662500
 20
16.51781250
  0
VERTEX
  8
0
 62
7
 10
17.57550000
 20
16.51025000
  0
VERTEX
  8
0
 62
7
 10
17.59212500
 20
16.50681250
  0
VERTEX
  8
0
 62
7
 10
17.60500000
 20
16.50600000
  0
VERTEX
  8
0
 62
7
 10
17.63050000
 20
16.50900000
  0
VERTEX
  8
0
 62
7
 10
17.65000000
 20
16.51500000
  0
VERTEX
  8
0
 62
7
 10
17.65886328
 20
16.51854492
  0
VERTEX
  8
0
 62
7
 10
17.67103125
 20
16.52479688
  0
VERTEX
  8
0
 62
7
 10
17.68512109
 20
16.53393164
  0
VERTEX
  8
0
 62
7
 10
17.69975000
 20
16.54612500
  0
VERTEX
  8
0
 62
7
 10
17.71353516
 20
16.56155273
  0
VERTEX
  8
0
 62
7
 10
17.72509375
 20
16.58039063
  0
VERTEX
  8
0
 62
7
 10
17.73304297
 20
16.60281445
  0
VERTEX
  8
0
 62
7
 10
17.73600000
 20
16.62900000
  0
VERTEX
  8
0
 62
7
 10
17.73437500
 20
16.64875000
  0
VERTEX
  8
0
 62
7
 10
17.72900000
 20
16.66700000
  0
VERTEX
  8
0
 62
7
 10
18.28900000
 20
16.61800000
  0
VERTEX
  8
0
 62
7
 10
18.68000000
 20
16.58200000
  0
VERTEX
  8
0
 62
7
 10
19.20675586
 20
16.52912891
  0
VERTEX
  8
0
 62
7
 10
19.73054688
 20
16.47253125
  0
VERTEX
  8
0
 62
7
 10
20.25065820
 20
16.41223047
  0
VERTEX
  8
0
 62
7
 10
20.76637500
 20
16.34825000
  0
VERTEX
  8
0
 62
7
 10
21.27698242
 20
16.28061328
  0
VERTEX
  8
0
 62
7
 10
21.78176563
 20
16.20934375
  0
VERTEX
  8
0
 62
7
 10
22.28000977
 20
16.13446484
  0
VERTEX
  8
0
 62
7
 10
22.77100000
 20
16.05600000
  0
VERTEX
  8
0
 62
7
 10
22.77100000
 20
5.83500000
  0
VERTEX
  8
0
 62
7
 10
22.31722266
 20
5.94389258
  0
VERTEX
  8
0
 62
7
 10
21.85128125
 20
6.05082813
  0
VERTEX
  8
0
 62
7
 10
21.37301172
 20
6.15581836
  0
VERTEX
  8
0
 62
7
 10
20.88225000
 20
6.25887500
  0
VERTEX
  8
0
 62
7
 10
20.37883203
 20
6.36000977
  0
VERTEX
  8
0
 62
7
 10
19.86259375
 20
6.45923438
  0
VERTEX
  8
0
 62
7
 10
19.33337109
 20
6.55656055
  0
VERTEX
  8
0
 62
7
 10
18.79100000
 20
6.65200000
  0
VERTEX
  8
0
 62
7
 10
18.51566333
 20
6.69692749
  0
VERTEX
  8
0
 62
7
 10
18.23980664
 20
6.73701367
  0
VERTEX
  8
0
 62
7
 10
17.96347241
 20
6.77252661
  0
VERTEX
  8
0
 62
7
 10
17.68670313
 20
6.80373438
  0
VERTEX
  8
0
 62
7
 10
17.40954126
 20
6.83090503
  0
VERTEX
  8
0
 62
7
 10
17.13202930
 20
6.85430664
  0
VERTEX
  8
0
 62
7
 10
16.85420972
 20
6.87420728
  0
VERTEX
  8
0
 62
7
 10
16.57612500
 20
6.89087500
  0
VERTEX
  8
0
 62
7
 10
16.29781763
 20
6.90457788
  0
VERTEX
  8
0
 62
7
 10
16.01933008
 20
6.91558398
  0
VERTEX
  8
0
 62
7
 10
15.74070483
 20
6.92416138
  0
VERTEX
  8
0
 62
7
 10
15.46198438
 20
6.93057813
  0
VERTEX
  8
0
 62
7
 10
15.18321118
 20
6.93510229
  0
VERTEX
  8
0
 62
7
 10
14.90442773
 20
6.93800195
  0
VERTEX
  8
0
 62
7
 10
14.62567651
 20
6.93954517
  0
VERTEX
  8
0
 62
7
 10
14.34700000
 20
6.94000000
  0
VERTEX
  8
0
 62
7
 10
14.07162817
 20
6.93879517
  0
VERTEX
  8
0
 62
7
 10
13.79711914
 20
6.93523633
  0
VERTEX
  8
0
 62
7
 10
13.52344507
 20
6.92940698
  0
VERTEX
  8
0
 62
7
 10
13.25057813
 20
6.92139063
  0
VERTEX
  8
0
 62
7
 10
12.97849048
 20
6.91127075
  0
VERTEX
  8
0
 62
7
 10
12.70715430
 20
6.89913086
  0
VERTEX
  8
0
 62
7
 10
12.43654175
 20
6.88505444
  0
VERTEX
  8
0
 62
7
 10
12.16662500
 20
6.86912500
  0
VERTEX
  8
0
 62
7
 10
11.89737622
 20
6.85142603
  0
VERTEX
  8
0
 62
7
 10
11.62876758
 20
6.83204102
  0
VERTEX
  8
0
 62
7
 10
11.36077124
 20
6.81105347
  0
VERTEX
  8
0
 62
7
 10
11.09335938
 20
6.78854688
  0
VERTEX
  8
0
 62
7
 10
10.82650415
 20
6.76460474
  0
VERTEX
  8
0
 62
7
 10
10.56017773
 20
6.73931055
  0
VERTEX
  8
0
 62
7
 10
10.29435229
 20
6.71274780
  0
VERTEX
  8
0
 62
7
 10
10.02900000
 20
6.68500000
  0
VERTEX
  8
0
 62
7
 10
9.74417188
 20
6.65300781
  0
VERTEX
  8
0
 62
7
 10
9.46262500
 20
6.61806250
  0
VERTEX
  8
0
 62
7
 10
9.18426563
 20
6.57946094
  0
VERTEX
  8
0
 62
7
 10
8.90900000
 20
6.53650000
  0
VERTEX
  8
0
 62
7
 10
8.63673438
 20
6.48847656
  0
VERTEX
  8
0
 62
7
 10
8.36737500
 20
6.43468750
  0
VERTEX
  8
0
 62
7
 10
8.10082813
 20
6.37442969
  0
VERTEX
  8
0
 62
7
 10
7.83700000
 20
6.30700000
  0
VERTEX
  8
0
 62
7
 10
7.83700000
 20
16.07000000
  0
VERTEX
  8
0
 62
7
 10
8.34842871
 20
16.14269556
  0
VERTEX
  8
0
 62
7
 10
8.86228906
 20
16.21112695
  0
VERTEX
  8
0
 62
7
 10
9.37850488
 20
16.27524878
  0
VERTEX
  8
0
 62
7
 10
9.89700000
 20
16.33501563
  0
VERTEX
  8
0
 62
7
 10
10.41769824
 20
16.39038208
  0
VERTEX
  8
0
 62
7
 10
10.94052344
 20
16.44130273
  0
VERTEX
  8
0
 62
7
 10
11.46539941
 20
16.48773218
  0
VERTEX
  8
0
 62
7
 10
11.99225000
 20
16.52962500
  0
VERTEX
  8
0
 62
7
 10
12.52099902
 20
16.56693579
  0
VERTEX
  8
0
 62
7
 10
13.05157031
 20
16.59961914
  0
VERTEX
  8
0
 62
7
 10
13.58388770
 20
16.62762964
  0
VERTEX
  8
0
 62
7
 10
14.11787500
 20
16.65092188
  0
VERTEX
  8
0
 62
7
 10
14.65345605
 20
16.66945044
  0
VERTEX
  8
0
 62
7
 10
15.19055469
 20
16.68316992
  0
VERTEX
  8
0
 62
7
 10
15.72909473
 20
16.69203491
  0
VERTEX
  8
0
 62
7
 10
16.26900000
 20
16.69600000
  0
VERTEX
  8
0
 62
7
 10
16.26200000
 20
16.66900000
  0
VERTEX
  8
0
 62
7
 10
16.25662500
 20
16.64987500
  0
VERTEX
  8
0
 62
7
 10
16.25500000
 20
16.63000000
  0
VERTEX
  8
0
 62
7
 10
16.25779102
 20
16.60381250
  0
VERTEX
  8
0
 62
7
 10
16.26532813
 20
16.58137500
  0
VERTEX
  8
0
 62
7
 10
16.27635742
 20
16.56250000
  0
VERTEX
  8
0
 62
7
 10
16.28962500
 20
16.54700000
  0
VERTEX
  8
0
 62
7
 10
16.30387695
 20
16.53468750
  0
VERTEX
  8
0
 62
7
 10
16.31785938
 20
16.52537500
  0
VERTEX
  8
0
 62
7
 10
16.33031836
 20
16.51887500
  0
VERTEX
  8
0
 62
7
 10
16.34000000
 20
16.51500000
  0
VERTEX
  8
0
 62
7
 10
16.35962500
 20
16.50812500
  0
VERTEX
  8
0
 62
7
 10
16.38600000
 20
16.50500000
  0
VERTEX
  8
0
 62
7
 10
16.39871875
 20
16.50595313
  0
VERTEX
  8
0
 62
7
 10
16.41500000
 20
16.50962500
  0
VERTEX
  8
0
 62
7
 10
16.43353125
 20
16.51723438
  0
VERTEX
  8
0
 62
7
 10
16.45300000
 20
16.53000000
  0
VERTEX
  8
0
 62
7
 10
16.48700000
 20
16.54900000
  0
VERTEX
  8
0
 62
7
 10
16.50100000
 20
16.55000000
  0
VERTEX
  8
0
 62
7
 10
16.54600000
 20
16.54500000
  0
VERTEX
  8
0
 62
7
 10
16.57600000
 20
16.54100000
  0
VERTEX
  8
0
 62
7
 10
16.64500000
 20
16.53700000
  0
VERTEX
  8
0
 62
7
 10
16.68915625
 20
16.53895313
  0
VERTEX
  8
0
 62
7
 10
16.73425000
 20
16.54512500
  0
VERTEX
  8
0
 62
7
 10
16.77971875
 20
16.55598438
  0
VERTEX
  8
0
 62
7
 10
16.82500000
 20
16.57200000
  0
VERTEX
  8
0
 62
7
 10
16.86831250
 20
16.59585938
  0
VERTEX
  8
0
 62
7
 10
16.90525000
 20
16.62487500
  0
VERTEX
  8
0
 62
7
 10
16.93581250
 20
16.65595313
  0
VERTEX
  8
0
 62
7
 10
16.96000000
 20
16.68600000
  0
VERTEX
  8
0
 62
7
 10
16.96600000
 20
16.69400000
  0
VERTEX
  8
0
 62
7
 10
17.02300000
 20
16.69300000
  0
SEQEND
  0
POLYLINE
  8
0
 62
7
 66
1
 70
1
  0
VERTEX
  8
0
 62
7
 10
6.69512367
 20
7.43656151
  0
VERTEX
  8
0
 62
7
 10
6.67369739
 20
7.41427818
  0
VERTEX
  8
0
 62
7
 10
6.70467573
 20
7.36387371
  0
VERTEX
  8
0
 62
7
 10
6.73487443
 20
7.31263059
  0
VERTEX
  8
0
 62
7
 10
6.76419683
 20
7.26057395
  0
VERTEX
  8
0
 62
7
 10
6.79254626
 20
7.20772889
  0
VERTEX
  8
0
 62
7
 10
6.81982605
 20
7.15412051
  0
VERTEX
  8
0
 62
7
 10
6.84593954
 20
7.09977393
  0
VERTEX
  8
0
 62
7
 10
6.87079004
 20
7.04471426
  0
VERTEX
  8
0
 62
7
 10
6.89428090
 20
6.98896661
  0
VERTEX
  8
0
 62
7
 10
6.91631544
 20
6.93255608
  0
VERTEX
  8
0
 62
7
 10
6.93679699
 20
6.87550778
  0
VERTEX
  8
0
 62
7
 10
6.95562889
 20
6.81784683
  0
VERTEX
  8
0
 62
7
 10
6.97271446
 20
6.75959833
  0
VERTEX
  8
0
 62
7
 10
6.98795704
 20
6.70078739
  0
VERTEX
  8
0
 62
7
 10
7.00125995
 20
6.64143911
  0
VERTEX
  8
0
 62
7
 10
7.01252653
 20
6.58157862
  0
VERTEX
  8
0
 62
7
 10
7.02166011
 20
6.52123101
  0
VERTEX
  8
0
 62
7
 10
6.99859171
 20
6.51293837
  0
VERTEX
  8
0
 62
7
 10
6.97627658
 20
6.50245624
  0
VERTEX
  8
0
 62
7
 10
6.95466450
 20
6.49016626
  0
VERTEX
  8
0
 62
7
 10
6.93370525
 20
6.47645009
  0
VERTEX
  8
0
 62
7
 10
6.91334861
 20
6.46168940
  0
VERTEX
  8
0
 62
7
 10
6.89354437
 20
6.44626583
  0
VERTEX
  8
0
 62
7
 10
6.87424231
 20
6.43056104
  0
VERTEX
  8
0
 62
7
 10
6.85539221
 20
6.41495668
  0
VERTEX
  8
0
 62
7
 10
6.81154283
 20
6.43202217
  0
VERTEX
  8
0
 62
7
 10
6.76886353
 20
6.45257151
  0
VERTEX
  8
0
 62
7
 10
6.72760038
 20
6.47643273
  0
VERTEX
  8
0
 62
7
 10
6.68799943
 20
6.50343381
  0
VERTEX
  8
0
 62
7
 10
6.65030676
 20
6.53340277
  0
VERTEX
  8
0
 62
7
 10
6.61476844
 20
6.56616760
  0
VERTEX
  8
0
 62
7
 10
6.58163052
 20
6.60155632
  0
VERTEX
  8
0
 62
7
 10
6.55113909
 20
6.63939692
  0
VERTEX
  8
0
 62
7
 10
6.52354021
 20
6.67951741
  0
VERTEX
  8
0
 62
7
 10
6.49907994
 20
6.72174580
  0
VERTEX
  8
0
 62
7
 10
6.47800435
 20
6.76591008
  0
VERTEX
  8
0
 62
7
 10
6.46055951
 20
6.81183827
  0
VERTEX
  8
0
 62
7
 10
6.44699149
 20
6.85935836
  0
VERTEX
  8
0
 62
7
 10
6.43754635
 20
6.90829836
  0
VERTEX
  8
0
 62
7
 10
6.43247017
 20
6.95848627
  0
VERTEX
  8
0
 62
7
 10
6.43200900
 20
7.00975010
  0
VERTEX
  8
0
 62
7
 10
6.43599295
 20
7.07783879
  0
VERTEX
  8
0
 62
7
 10
6.44234718
 20
7.13680791
  0
VERTEX
  8
0
 62
7
 10
6.45038873
 20
7.18854567
  0
VERTEX
  8
0
 62
7
 10
6.45943463
 20
7.23494026
  0
VERTEX
  8
0
 62
7
 10
6.46880193
 20
7.27787985
  0
VERTEX
  8
0
 62
7
 10
6.47780766
 20
7.31925265
  0
VERTEX
  8
0
 62
7
 10
6.48576886
 20
7.36094684
  0
VERTEX
  8
0
 62
7
 10
6.49200257
 20
7.40485062
  0
VERTEX
  8
0
 62
7
 10
6.49597982
 20
7.46631725
  0
VERTEX
  8
0
 62
7
 10
6.49489512
 20
7.53726501
  0
VERTEX
  8
0
 62
7
 10
6.48850741
 20
7.61335507
  0
VERTEX
  8
0
 62
7
 10
6.47657565
 20
7.69024862
  0
VERTEX
  8
0
 62
7
 10
6.47692697
 20
7.69527521
  0
VERTEX
  8
0
 62
7
 10
6.48002897
 20
7.69916563
  0
VERTEX
  8
0
 62
7
 10
6.48557908
 20
7.70200901
  0
VERTEX
  8
0
 62
7
 10
6.49327476
 20
7.70389448
  0
VERTEX
  8
0
 62
7
 10
6.50281342
 20
7.70491118
  0
VERTEX
  8
0
 62
7
 10
6.51389252
 20
7.70514825
  0
VERTEX
  8
0
 62
7
 10
6.52620949
 20
7.70469482
  0
VERTEX
  8
0
 62
7
 10
6.53946177
 20
7.70364004
  0
VERTEX
  8
0
 62
7
 10
6.55334679
 20
7.70207303
  0
VERTEX
  8
0
 62
7
 10
6.56756200
 20
7.70008294
  0
VERTEX
  8
0
 62
7
 10
6.58180482
 20
7.69775890
  0
VERTEX
  8
0
 62
7
 10
6.59577270
 20
7.69519005
  0
VERTEX
  8
0
 62
7
 10
6.60916308
 20
7.69246552
  0
VERTEX
  8
0
 62
7
 10
6.62167339
 20
7.68967446
  0
VERTEX
  8
0
 62
7
 10
6.63300107
 20
7.68690599
  0
VERTEX
  8
0
 62
7
 10
6.64284355
 20
7.68424926
  0
VERTEX
  8
0
 62
7
 10
6.67048180
 20
7.67544014
  0
VERTEX
  8
0
 62
7
 10
6.69854204
 20
7.66525959
  0
VERTEX
  8
0
 62
7
 10
6.72693904
 20
7.65373227
  0
VERTEX
  8
0
 62
7
 10
6.75558761
 20
7.64088281
  0
VERTEX
  8
0
 62
7
 10
6.78440253
 20
7.62673585
  0
VERTEX
  8
0
 62
7
 10
6.81329857
 20
7.61131602
  0
VERTEX
  8
0
 62
7
 10
6.84219054
 20
7.59464796
  0
VERTEX
  8
0
 62
7
 10
6.87099322
 20
7.57675631
  0
VERTEX
  8
0
 62
7
 10
6.89962138
 20
7.55766571
  0
VERTEX
  8
0
 62
7
 10
6.92798983
 20
7.53740080
  0
VERTEX
  8
0
 62
7
 10
6.95601334
 20
7.51598622
  0
VERTEX
  8
0
 62
7
 10
6.98360671
 20
7.49344660
  0
VERTEX
  8
0
 62
7
 10
7.01068471
 20
7.46980658
  0
VERTEX
  8
0
 62
7
 10
7.03716214
 20
7.44509080
  0
VERTEX
  8
0
 62
7
 10
7.06295379
 20
7.41932390
  0
VERTEX
  8
0
 62
7
 10
7.08797443
 20
7.39253051
  0
VERTEX
  8
0
 62
7
 10
7.11213886
 20
7.36473528
  0
VERTEX
  8
0
 62
7
 10
7.13536186
 20
7.33596284
  0
VERTEX
  8
0
 62
7
 10
7.15755822
 20
7.30623784
  0
VERTEX
  8
0
 62
7
 10
7.17864273
 20
7.27558490
  0
VERTEX
  8
0
 62
7
 10
7.19853017
 20
7.24402866
  0
VERTEX
  8
0
 62
7
 10
7.21713533
 20
7.21159378
  0
VERTEX
  8
0
 62
7
 10
7.23437299
 20
7.17830487
  0
VERTEX
  8
0
 62
7
 10
7.25015795
 20
7.14418659
  0
VERTEX
  8
0
 62
7
 10
7.26440498
 20
7.10926356
  0
VERTEX
  8
0
 62
7
 10
7.27702888
 20
7.07356043
  0
VERTEX
  8
0
 62
7
 10
7.28794443
 20
7.03710184
  0
VERTEX
  8
0
 62
7
 10
7.29706643
 20
6.99991242
  0
VERTEX
  8
0
 62
7
 10
7.30430964
 20
6.96201682
  0
VERTEX
  8
0
 62
7
 10
7.30958887
 20
6.92343966
  0
VERTEX
  8
0
 62
7
 10
7.31281890
 20
6.88420559
  0
VERTEX
  8
0
 62
7
 10
7.31391451
 20
6.84433925
  0
VERTEX
  8
0
 62
7
 10
7.31167814
 20
6.78458672
  0
VERTEX
  8
0
 62
7
 10
7.30502260
 20
6.72628047
  0
VERTEX
  8
0
 62
7
 10
7.29402825
 20
6.66958119
  0
VERTEX
  8
0
 62
7
 10
7.27877542
 20
6.61464957
  0
VERTEX
  8
0
 62
7
 10
7.24283284
 20
6.59462940
  0
VERTEX
  8
0
 62
7
 10
7.20464050
 20
6.57854630
  0
VERTEX
  8
0
 62
7
 10
7.16451980
 20
6.56680202
  0
VERTEX
  8
0
 62
7
 10
7.12279213
 20
6.55979831
  0
VERTEX
  8
0
 62
7
 10
7.08936714
 20
6.55465600
  0
VERTEX
  8
0
 62
7
 10
7.07945958
 20
6.61617787
  0
VERTEX
  8
0
 62
7
 10
7.06715412
 20
6.67698664
  0
VERTEX
  8
0
 62
7
 10
7.05254366
 20
6.73705220
  0
VERTEX
  8
0
 62
7
 10
7.03572110
 20
6.79634439
  0
VERTEX
  8
0
 62
7
 10
7.01677935
 20
6.85483310
  0
VERTEX
  8
0
 62
7
 10
6.99581131
 20
6.91248820
  0
VERTEX
  8
0
 62
7
 10
6.97290989
 20
6.96927955
  0
VERTEX
  8
0
 62
7
 10
6.94816798
 20
7.02517702
  0
VERTEX
  8
0
 62
7
 10
6.92167849
 20
7.08015048
  0
VERTEX
  8
0
 62
7
 10
6.89353433
 20
7.13416980
  0
VERTEX
  8
0
 62
7
 10
6.86382839
 20
7.18720486
  0
VERTEX
  8
0
 62
7
 10
6.83265357
 20
7.23922551
  0
VERTEX
  8
0
 62
7
 10
6.80010279
 20
7.29020163
  0
VERTEX
  8
0
 62
7
 10
6.76626894
 20
7.34010310
  0
VERTEX
  8
0
 62
7
 10
6.73124493
 20
7.38889977
  0
VERTEX
  8
0
 62
7
 10
6.69512367
 20
7.43656151
  0
SEQEND
  0
POLYLINE
  8
0
 62
7
 66
1
 70
1
  0
VERTEX
  8
0
 62
7
 10
23.54400000
 20
4.92900000
  0
VERTEX
  8
0
 62
7
 10
23.27639630
 20
5.01419464
  0
VERTEX
  8
0
 62
7
 10
23.00813525
 20
5.09708838
  0
VERTEX
  8
0
 62
7
 10
22.73919818
 20
5.17767719
  0
VERTEX
  8
0
 62
7
 10
22.46956641
 20
5.25595703
  0
VERTEX
  8
0
 62
7
 10
22.19922125
 20
5.33192389
  0
VERTEX
  8
0
 62
7
 10
21.92814404
 20
5.40557373
  0
VERTEX
  8
0
 62
7
 10
21.65631610
 20
5.47690253
  0
VERTEX
  8
0
 62
7
 10
21.38371875
 20
5.54590625
  0
VERTEX
  8
0
 62
7
 10
21.11033331
 20
5.61258087
  0
VERTEX
  8
0
 62
7
 10
20.83614111
 20
5.67692236
  0
VERTEX
  8
0
 62
7
 10
20.56112347
 20
5.73892670
  0
VERTEX
  8
0
 62
7
 10
20.28526172
 20
5.79858984
  0
VERTEX
  8
0
 62
7
 10
20.00853717
 20
5.85590778
  0
VERTEX
  8
0
 62
7
 10
19.73093115
 20
5.91087646
  0
VERTEX
  8
0
 62
7
 10
19.45242499
 20
5.96349188
  0
VERTEX
  8
0
 62
7
 10
19.17300000
 20
6.01375000
  0
VERTEX
  8
0
 62
7
 10
18.89263751
 20
6.06164679
  0
VERTEX
  8
0
 62
7
 10
18.61131885
 20
6.10717822
  0
VERTEX
  8
0
 62
7
 10
18.32902533
 20
6.15034027
  0
VERTEX
  8
0
 62
7
 10
18.04573828
 20
6.19112891
  0
VERTEX
  8
0
 62
7
 10
17.76143903
 20
6.22954010
  0
VERTEX
  8
0
 62
7
 10
17.47610889
 20
6.26556982
  0
VERTEX
  8
0
 62
7
 10
17.18972919
 20
6.29921405
  0
VERTEX
  8
0
 62
7
 10
16.90228125
 20
6.33046875
  0
VERTEX
  8
0
 62
7
 10
16.61374640
 20
6.35932990
  0
VERTEX
  8
0
 62
7
 10
16.32410596
 20
6.38579346
  0
VERTEX
  8
0
 62
7
 10
16.03334125
 20
6.40985541
  0
VERTEX
  8
0
 62
7
 10
15.74143359
 20
6.43151172
  0
VERTEX
  8
0
 62
7
 10
15.44836432
 20
6.45075836
  0
VERTEX
  8
0
 62
7
 10
15.15411475
 20
6.46759131
  0
VERTEX
  8
0
 62
7
 10
14.85866620
 20
6.48200653
  0
VERTEX
  8
0
 62
7
 10
14.56200000
 20
6.49400000
  0
VERTEX
  8
0
 62
7
 10
14.29068750
 20
6.50071875
  0
VERTEX
  8
0
 62
7
 10
14.01600000
 20
6.50575000
  0
VERTEX
  8
0
 62
7
 10
13.73906250
 20
6.50890625
  0
VERTEX
  8
0
 62
7
 10
13.46100000
 20
6.51000000
  0
VERTEX
  8
0
 62
7
 10
13.17606714
 20
6.50898218
  0
VERTEX
  8
0
 62
7
 10
12.89167773
 20
6.50593555
  0
VERTEX
  8
0
 62
7
 10
12.60788306
 20
6.50087036
  0
VERTEX
  8
0
 62
7
 10
12.32473438
 20
6.49379688
  0
VERTEX
  8
0
 62
7
 10
12.04228296
 20
6.48472534
  0
VERTEX
  8
0
 62
7
 10
11.76058008
 20
6.47366602
  0
VERTEX
  8
0
 62
7
 10
11.47967700
 20
6.46062915
  0
VERTEX
  8
0
 62
7
 10
11.19962500
 20
6.44562500
  0
VERTEX
  8
0
 62
7
 10
10.92047534
 20
6.42866382
  0
VERTEX
  8
0
 62
7
 10
10.64227930
 20
6.40975586
  0
VERTEX
  8
0
 62
7
 10
10.36508813
 20
6.38891138
  0
VERTEX
  8
0
 62
7
 10
10.08895313
 20
6.36614063
  0
VERTEX
  8
0
 62
7
 10
9.81392554
 20
6.34145386
  0
VERTEX
  8
0
 62
7
 10
9.54005664
 20
6.31486133
  0
VERTEX
  8
0
 62
7
 10
9.26739771
 20
6.28637329
  0
VERTEX
  8
0
 62
7
 10
8.99600000
 20
6.25600000
  0
VERTEX
  8
0
 62
7
 10
8.99500000
 20
6.25600000
  0
VERTEX
  8
0
 62
7
 10
8.95620313
 20
6.28302344
  0
VERTEX
  8
0
 62
7
 10
8.91562500
 20
6.30775000
  0
VERTEX
  8
0
 62
7
 10
8.87335938
 20
6.33003906
  0
VERTEX
  8
0
 62
7
 10
8.82950000
 20
6.34975000
  0
VERTEX
  8
0
 62
7
 10
8.78414063
 20
6.36674219
  0
VERTEX
  8
0
 62
7
 10
8.73737500
 20
6.38087500
  0
VERTEX
  8
0
 62
7
 10
8.68929688
 20
6.39200781
  0
VERTEX
  8
0
 62
7
 10
8.64000000
 20
6.40000000
  0
VERTEX
  8
0
 62
7
 10
8.97768750
 20
6.45995313
  0
VERTEX
  8
0
 62
7
 10
9.32250000
 20
6.51362500
  0
VERTEX
  8
0
 62
7
 10
9.67331250
 20
6.56073438
  0
VERTEX
  8
0
 62
7
 10
10.02900000
 20
6.60100000
  0
VERTEX
  8
0
 62
7
 10
10.29504419
 20
6.62757178
  0
VERTEX
  8
0
 62
7
 10
10.56144727
 20
6.65321484
  0
VERTEX
  8
0
 62
7
 10
10.82823999
 20
6.67782080
  0
VERTEX
  8
0
 62
7
 10
11.09545313
 20
6.70128125
  0
VERTEX
  8
0
 62
7
 10
11.36311743
 20
6.72348779
  0
VERTEX
  8
0
 62
7
 10
11.63126367
 20
6.74433203
  0
VERTEX
  8
0
 62
7
 10
11.89992261
 20
6.76370557
  0
VERTEX
  8
0
 62
7
 10
12.16912500
 20
6.78150000
  0
VERTEX
  8
0
 62
7
 10
12.43890161
 20
6.79760693
  0
VERTEX
  8
0
 62
7
 10
12.70928320
 20
6.81191797
  0
VERTEX
  8
0
 62
7
 10
12.98030054
 20
6.82432471
  0
VERTEX
  8
0
 62
7
 10
13.25198438
 20
6.83471875
  0
VERTEX
  8
0
 62
7
 10
13.52436548
 20
6.84299170
  0
VERTEX
  8
0
 62
7
 10
13.79747461
 20
6.84903516
  0
VERTEX
  8
0
 62
7
 10
14.07134253
 20
6.85274072
  0
VERTEX
  8
0
 62
7
 10
14.34600000
 20
6.85400000
  0
VERTEX
  8
0
 62
7
 10
14.62375024
 20
6.85357861
  0
VERTEX
  8
0
 62
7
 10
14.90159570
 20
6.85212891
  0
VERTEX
  8
0
 62
7
 10
15.17949097
 20
6.84937256
  0
VERTEX
  8
0
 62
7
 10
15.45739063
 20
6.84503125
  0
VERTEX
  8
0
 62
7
 10
15.73524927
 20
6.83882666
  0
VERTEX
  8
0
 62
7
 10
16.01302148
 20
6.83048047
  0
VERTEX
  8
0
 62
7
 10
16.29066187
 20
6.81971436
  0
VERTEX
  8
0
 62
7
 10
16.56812500
 20
6.80625000
  0
VERTEX
  8
0
 62
7
 10
16.84536548
 20
6.78980908
  0
VERTEX
  8
0
 62
7
 10
17.12233789
 20
6.77011328
  0
VERTEX
  8
0
 62
7
 10
17.39899683
 20
6.74688428
  0
VERTEX
  8
0
 62
7
 10
17.67529688
 20
6.71984375
  0
VERTEX
  8
0
 62
7
 10
17.95119263
 20
6.68871338
  0
VERTEX
  8
0
 62
7
 10
18.22663867
 20
6.65321484
  0
VERTEX
  8
0
 62
7
 10
18.50158960
 20
6.61306982
  0
VERTEX
  8
0
 62
7
 10
18.77600000
 20
6.56800000
  0
VERTEX
  8
0
 62
7
 10
19.34042969
 20
6.46804492
  0
VERTEX
  8
0
 62
7
 10
19.88362500
 20
6.36798438
  0
VERTEX
  8
0
 62
7
 10
20.40844531
 20
6.26715039
  0
VERTEX
  8
0
 62
7
 10
20.91775000
 20
6.16487500
  0
VERTEX
  8
0
 62
7
 10
21.41439844
 20
6.06049023
  0
VERTEX
  8
0
 62
7
 10
21.90125000
 20
5.95332813
  0
VERTEX
  8
0
 62
7
 10
22.38116406
 20
5.84272070
  0
VERTEX
  8
0
 62
7
 10
22.85700000
 20
5.72800000
  0
VERTEX
  8
0
 62
7
 10
22.85700000
 20
15.70600000
  0
VERTEX
  8
0
 62
7
 10
23.17200000
 20
15.70600000
  0
VERTEX
  8
0
 62
7
 10
23.17200000
 20
5.40100000
  0
VERTEX
  8
0
 62
7
 10
22.80141748
 20
5.50594263
  0
VERTEX
  8
0
 62
7
 10
22.42912109
 20
5.60627539
  0
VERTEX
  8
0
 62
7
 10
22.05503760
 20
5.70200562
  0
VERTEX
  8
0
 62
7
 10
21.67909375
 20
5.79314063
  0
VERTEX
  8
0
 62
7
 10
21.30121631
 20
5.87968774
  0
VERTEX
  8
0
 62
7
 10
20.92133203
 20
5.96165430
  0
VERTEX
  8
0
 62
7
 10
20.53936768
 20
6.03904761
  0
VERTEX
  8
0
 62
7
 10
20.15525000
 20
6.11187500
  0
VERTEX
  8
0
 62
7
 10
19.76890576
 20
6.18014380
  0
VERTEX
  8
0
 62
7
 10
19.38026172
 20
6.24386133
  0
VERTEX
  8
0
 62
7
 10
18.98924463
 20
6.30303491
  0
VERTEX
  8
0
 62
7
 10
18.59578125
 20
6.35767188
  0
VERTEX
  8
0
 62
7
 10
18.19979834
 20
6.40777954
  0
VERTEX
  8
0
 62
7
 10
17.80122266
 20
6.45336523
  0
VERTEX
  8
0
 62
7
 10
17.39998096
 20
6.49443628
  0
VERTEX
  8
0
 62
7
 10
16.99600000
 20
6.53100000
  0
VERTEX
  8
0
 62
7
 10
17.40422144
 20
6.48021216
  0
VERTEX
  8
0
 62
7
 10
17.81025586
 20
6.42572852
  0
VERTEX
  8
0
 62
7
 10
18.21409595
 20
6.36755640
  0
VERTEX
  8
0
 62
7
 10
18.61573438
 20
6.30570313
  0
VERTEX
  8
0
 62
7
 10
19.01516382
 20
6.24017603
  0
VERTEX
  8
0
 62
7
 10
19.41237695
 20
6.17098242
  0
VERTEX
  8
0
 62
7
 10
19.80736646
 20
6.09812964
  0
VERTEX
  8
0
 62
7
 10
20.20012500
 20
6.02162500
  0
VERTEX
  8
0
 62
7
 10
20.59064526
 20
5.94147583
  0
VERTEX
  8
0
 62
7
 10
20.97891992
 20
5.85768945
  0
VERTEX
  8
0
 62
7
 10
21.36494165
 20
5.77027319
  0
VERTEX
  8
0
 62
7
 10
21.74870313
 20
5.67923438
  0
VERTEX
  8
0
 62
7
 10
22.13019702
 20
5.58458032
  0
VERTEX
  8
0
 62
7
 10
22.50941602
 20
5.48631836
  0
VERTEX
  8
0
 62
7
 10
22.88635278
 20
5.38445581
  0
VERTEX
  8
0
 62
7
 10
23.26100000
 20
5.27900000
  0
VERTEX
  8
0
 62
7
 10
23.25800000
 20
15.44200000
  0
VERTEX
  8
0
 62
7
 10
23.54400000
 20
15.44200000
  0
VERTEX
  8
0
 62
7
 10
23.54400000
 20
4.92900000
  0
SEQEND
  0
POLYLINE
  8
0
 62
7
 66
1
 70
1
  0
VERTEX
  8
0
 62
7
 10
6.80400000
 20
14.43100000
  0
VERTEX
  8
0
 62
7
 10
6.91785938
 20
14.33484375
  0
VERTEX
  8
0
 62
7
 10
7.02712500
 20
14.23400000
  0
VERTEX
  8
0
 62
7
 10
7.13207813
 20
14.12865625
  0
VERTEX
  8
0
 62
7
 10
7.23300000
 20
14.01900000
  0
VERTEX
  8
0
 62
7
 10
7.24800000
 20
14.00900000
  0
VERTEX
  8
0
 62
7
 10
7.26900000
 20
14.00500000
  0
VERTEX
  8
0
 62
7
 10
7.27923047
 20
14.00600195
  0
VERTEX
  8
0
 62
7
 10
7.28878125
 20
14.00889063
  0
VERTEX
  8
0
 62
7
 10
7.29744141
 20
14.01349023
  0
VERTEX
  8
0
 62
7
 10
7.30500000
 20
14.01962500
  0
VERTEX
  8
0
 62
7
 10
7.31124609
 20
14.02711914
  0
VERTEX
  8
0
 62
7
 10
7.31596875
 20
14.03579688
  0
VERTEX
  8
0
 62
7
 10
7.31895703
 20
14.04548242
  0
VERTEX
  8
0
 62
7
 10
7.32000000
 20
14.05600000
  0
VERTEX
  8
0
 62
7
 10
7.31650000
 20
14.07400000
  0
VERTEX
  8
0
 62
7
 10
7.30700000
 20
14.08900000
  0
VERTEX
  8
0
 62
7
 10
7.19117188
 20
14.21475000
  0
VERTEX
  8
0
 62
7
 10
7.06887500
 20
14.33525000
  0
VERTEX
  8
0
 62
7
 10
6.94039063
 20
14.45012500
  0
VERTEX
  8
0
 62
7
 10
6.80600000
 20
14.55900000
  0
VERTEX
  8
0
 62
7
 10
6.80400000
 20
16.33300000
  0
VERTEX
  8
0
 62
7
 10
6.80400000
 20
16.33400000
  0
VERTEX
  8
0
 62
7
 10
6.80400000
 20
16.33600000
  0
VERTEX
  8
0
 62
7
 10
6.80295703
 20
16.34623047
  0
VERTEX
  8
0
 62
7
 10
6.79996875
 20
16.35578125
  0
VERTEX
  8
0
 62
7
 10
6.79524609
 20
16.36444141
  0
VERTEX
  8
0
 62
7
 10
6.78900000
 20
16.37200000
  0
VERTEX
  8
0
 62
7
 10
6.78144141
 20
16.37824609
  0
VERTEX
  8
0
 62
7
 10
6.77278125
 20
16.38296875
  0
VERTEX
  8
0
 62
7
 10
6.76323047
 20
16.38595703
  0
VERTEX
  8
0
 62
7
 10
6.75300000
 20
16.38700000
  0
VERTEX
  8
0
 62
7
 10
6.74281250
 20
16.38595703
  0
VERTEX
  8
0
 62
7
 10
6.73337500
 20
16.38296875
  0
VERTEX
  8
0
 62
7
 10
6.72487500
 20
16.37824609
  0
VERTEX
  8
0
 62
7
 10
6.71750000
 20
16.37200000
  0
VERTEX
  8
0
 62
7
 10
6.71143750
 20
16.36444141
  0
VERTEX
  8
0
 62
7
 10
6.70687500
 20
16.35578125
  0
VERTEX
  8
0
 62
7
 10
6.70400000
 20
16.34623047
  0
VERTEX
  8
0
 62
7
 10
6.70300000
 20
16.33600000
  0
VERTEX
  8
0
 62
7
 10
6.70300000
 20
16.33300000
  0
VERTEX
  8
0
 62
7
 10
6.70300000
 20
14.63800000
  0
VERTEX
  8
0
 62
7
 10
6.62040430
 20
14.69575195
  0
VERTEX
  8
0
 62
7
 10
6.53610938
 20
14.75126563
  0
VERTEX
  8
0
 62
7
 10
6.45010352
 20
14.80455273
  0
VERTEX
  8
0
 62
7
 10
6.36237500
 20
14.85562500
  0
VERTEX
  8
0
 62
7
 10
6.27291211
 20
14.90449414
  0
VERTEX
  8
0
 62
7
 10
6.18170313
 20
14.95117188
  0
VERTEX
  8
0
 62
7
 10
6.08873633
 20
14.99566992
  0
VERTEX
  8
0
 62
7
 10
5.99400000
 20
15.03800000
  0
VERTEX
  8
0
 62
7
 10
5.99000000
 20
15.04000000
  0
VERTEX
  8
0
 62
7
 10
5.97962500
 20
15.04462500
  0
VERTEX
  8
0
 62
7
 10
5.96700000
 20
15.04700000
  0
VERTEX
  8
0
 62
7
 10
5.95643945
 20
15.04591406
  0
VERTEX
  8
0
 62
7
 10
5.94664063
 20
15.04281250
  0
VERTEX
  8
0
 62
7
 10
5.93780273
 20
15.03792969
  0
VERTEX
  8
0
 62
7
 10
5.93012500
 20
15.03150000
  0
VERTEX
  8
0
 62
7
 10
5.92380664
 20
15.02375781
  0
VERTEX
  8
0
 62
7
 10
5.91904688
 20
15.01493750
  0
VERTEX
  8
0
 62
7
 10
5.91604492
 20
15.00527344
  0
VERTEX
  8
0
 62
7
 10
5.91500000
 20
14.99500000
  0
VERTEX
  8
0
 62
7
 10
5.91801563
 20
14.97775000
  0
VERTEX
  8
0
 62
7
 10
5.92637500
 20
14.96275000
  0
VERTEX
  8
0
 62
7
 10
5.93904688
 20
14.95112500
  0
VERTEX
  8
0
 62
7
 10
5.95500000
 20
14.94400000
  0
VERTEX
  8
0
 62
7
 10
6.05526758
 20
14.89943164
  0
VERTEX
  8
0
 62
7
 10
6.15357813
 20
14.85201563
  0
VERTEX
  8
0
 62
7
 10
6.24994336
 20
14.80181055
  0
VERTEX
  8
0
 62
7
 10
6.34437500
 20
14.74887500
  0
VERTEX
  8
0
 62
7
 10
6.43688477
 20
14.69326758
  0
VERTEX
  8
0
 62
7
 10
6.52748438
 20
14.63504688
  0
VERTEX
  8
0
 62
7
 10
6.61618555
 20
14.57427148
  0
VERTEX
  8
0
 62
7
 10
6.70300000
 20
14.51100000
  0
VERTEX
  8
0
 62
7
 10
6.70300000
 20
8.99500000
  0
VERTEX
  8
0
 62
7
 10
6.70300000
 20
8.99100000
  0
VERTEX
  8
0
 62
7
 10
6.70400000
 20
8.98105664
  0
VERTEX
  8
0
 62
7
 10
6.70687500
 20
8.97164063
  0
VERTEX
  8
0
 62
7
 10
6.71143750
 20
8.96299805
  0
VERTEX
  8
0
 62
7
 10
6.71750000
 20
8.95537500
  0
VERTEX
  8
0
 62
7
 10
6.72487500
 20
8.94901758
  0
VERTEX
  8
0
 62
7
 10
6.73337500
 20
8.94417188
  0
VERTEX
  8
0
 62
7
 10
6.74281250
 20
8.94108398
  0
VERTEX
  8
0
 62
7
 10
6.75300000
 20
8.94000000
  0
VERTEX
  8
0
 62
7
 10
6.76323047
 20
8.94108398
  0
VERTEX
  8
0
 62
7
 10
6.77278125
 20
8.94417188
  0
VERTEX
  8
0
 62
7
 10
6.78144141
 20
8.94901758
  0
VERTEX
  8
0
 62
7
 10
6.78900000
 20
8.95537500
  0
VERTEX
  8
0
 62
7
 10
6.79524609
 20
8.96299805
  0
VERTEX
  8
0
 62
7
 10
6.79996875
 20
8.97164063
  0
VERTEX
  8
0
 62
7
 10
6.80295703
 20
8.98105664
  0
VERTEX
  8
0
 62
7
 10
6.80400000
 20
8.99100000
  0
VERTEX
  8
0
 62
7
 10
6.80400000
 20
8.99500000
  0
VERTEX
  8
0
 62
7
 10
6.80400000
 20
14.43100000
  0
SEQEND
  0
POLYLINE
  8
0
 62
7
 66
1
 70
1
  0
VERTEX
  8
0
 62
7
 10
28.00012990
 20
20.50100000
  0
VERTEX
  8
0
 62
7
 10
27.54666425
 20
20.50388379
  0
VERTEX
  8
0
 62
7
 10
27.09631439
 20
20.51253906
  0
VERTEX
  8
0
 62
7
 10
26.64893822
 20
20.52697168
  0
VERTEX
  8
0
 62
7
 10
26.20439363
 20
20.54718750
  0
VERTEX
  8
0
 62
7
 10
25.76253856
 20
20.57319238
  0
VERTEX
  8
0
 62
7
 10
25.32323089
 20
20.60499219
  0
VERTEX
  8
0
 62
7
 10
24.88632854
 20
20.64259277
  0
VERTEX
  8
0
 62
7
 10
24.45168942
 20
20.68600000
  0
VERTEX
  8
0
 62
7
 10
24.01917142
 20
20.73521973
  0
VERTEX
  8
0
 62
7
 10
23.58863247
 20
20.79025781
  0
VERTEX
  8
0
 62
7
 10
23.15993047
 20
20.85112012
  0
VERTEX
  8
0
 62
7
 10
22.73292332
 20
20.91781250
  0
VERTEX
  8
0
 62
7
 10
22.30746894
 20
20.99034082
  0
VERTEX
  8
0
 62
7
 10
21.88342523
 20
21.06871094
  0
VERTEX
  8
0
 62
7
 10
21.46065009
 20
21.15292871
  0
VERTEX
  8
0
 62
7
 10
21.03900144
 20
21.24300000
  0
VERTEX
  8
0
 62
7
 10
20.61647680
 20
21.33325098
  0
VERTEX
  8
0
 62
7
 10
20.19122603
 20
21.41797656
  0
VERTEX
  8
0
 62
7
 10
19.76333556
 20
21.49713574
  0
VERTEX
  8
0
 62
7
 10
19.33289183
 20
21.57068750
  0
VERTEX
  8
0
 62
7
 10
18.89998125
 20
21.63859082
  0
VERTEX
  8
0
 62
7
 10
18.46469026
 20
21.70080469
  0
VERTEX
  8
0
 62
7
 10
18.02710528
 20
21.75728809
  0
VERTEX
  8
0
 62
7
 10
17.58731274
 20
21.80800000
  0
VERTEX
  8
0
 62
7
 10
17.14539907
 20
21.85289941
  0
VERTEX
  8
0
 62
7
 10
16.70145069
 20
21.89194531
  0
VERTEX
  8
0
 62
7
 10
16.25555404
 20
21.92509668
  0
VERTEX
  8
0
 62
7
 10
15.80779553
 20
21.95231250
  0
VERTEX
  8
0
 62
7
 10
15.35826160
 20
21.97355176
  0
VERTEX
  8
0
 62
7
 10
14.90703867
 20
21.98877344
  0
VERTEX
  8
0
 62
7
 10
14.45421318
 20
21.99793652
  0
VERTEX
  8
0
 62
7
 10
13.99987154
 20
22.00100000
  0
VERTEX
  8
0
 62
7
 10
13.54888617
 20
21.99790454
  0
VERTEX
  8
0
 62
7
 10
13.09869476
 20
21.98865820
  0
VERTEX
  8
0
 62
7
 10
12.64948188
 20
21.97332104
  0
VERTEX
  8
0
 62
7
 10
12.20143210
 20
21.95195313
  0
VERTEX
  8
0
 62
7
 10
11.75473001
 20
21.92461450
  0
VERTEX
  8
0
 62
7
 10
11.30956018
 20
21.89136523
  0
VERTEX
  8
0
 62
7
 10
10.86610717
 20
21.85226538
  0
VERTEX
  8
0
 62
7
 10
10.42455556
 20
21.80737500
  0
VERTEX
  8
0
 62
7
 10
9.98508994
 20
21.75675415
  0
VERTEX
  8
0
 62
7
 10
9.54789486
 20
21.70046289
  0
VERTEX
  8
0
 62
7
 10
9.11315490
 20
21.63856128
  0
VERTEX
  8
0
 62
7
 10
8.68105464
 20
21.57110938
  0
VERTEX
  8
0
 62
7
 10
8.25177865
 20
21.49816724
  0
VERTEX
  8
0
 62
7
 10
7.82551151
 20
21.41979492
  0
VERTEX
  8
0
 62
7
 10
7.40243778
 20
21.33605249
  0
VERTEX
  8
0
 62
7
 10
6.98274205
 20
21.24700000
  0
VERTEX
  8
0
 62
7
 10
6.56342816
 20
21.15803735
  0
VERTEX
  8
0
 62
7
 10
6.14143356
 20
21.07454883
  0
VERTEX
  8
0
 62
7
 10
5.71684320
 20
20.99657104
  0
VERTEX
  8
0
 62
7
 10
5.28974206
 20
20.92414063
  0
VERTEX
  8
0
 62
7
 10
4.86021509
 20
20.85729419
  0
VERTEX
  8
0
 62
7
 10
4.42834726
 20
20.79606836
  0
VERTEX
  8
0
 62
7
 10
3.99422352
 20
20.74049976
  0
VERTEX
  8
0
 62
7
 10
3.55792885
 20
20.69062500
  0
VERTEX
  8
0
 62
7
 10
3.11954820
 20
20.64648071
  0
VERTEX
  8
0
 62
7
 10
2.67916654
 20
20.60810352
  0
VERTEX
  8
0
 62
7
 10
2.23686883
 20
20.57553003
  0
VERTEX
  8
0
 62
7
 10
1.79274003
 20
20.54879688
  0
VERTEX
  8
0
 62
7
 10
1.34686510
 20
20.52794067
  0
VERTEX
  8
0
 62
7
 10
.89932901
 20
20.51299805
  0
VERTEX
  8
0
 62
7
 10
.45021672
 20
20.50400562
  0
VERTEX
  8
0
 62
7
 10
-.00038681
 20
20.50100000
  0
VERTEX
  8
0
 62
7
 10
.00061320
 20
.00000000
  0
VERTEX
  8
0
 62
7
 10
28.00012990
 20
.00000000
  0
VERTEX
  8
0
 62
7
 10
28.00012990
 20
20.50100000
  0
SEQEND
  0
POLYLINE
  8
0
 62
7
 66
1
 70
1
  0
VERTEX
  8
0
 62
7
 10
15.61856261
 20
16.78072000
  0
VERTEX
  8
0
 62
7
 10
15.62664805
 20
16.83745992
  0
VERTEX
  8
0
 62
7
 10
15.63214504
 20
16.89774688
  0
VERTEX
  8
0
 62
7
 10
15.63497008
 20
16.96021164
  0
VERTEX
  8
0
 62
7
 10
15.63503966
 20
17.02348500
  0
VERTEX
  8
0
 62
7
 10
15.63227029
 20
17.08619773
  0
VERTEX
  8
0
 62
7
 10
15.62657847
 20
17.14698063
  0
VERTEX
  8
0
 62
7
 10
15.61788070
 20
17.20446445
  0
VERTEX
  8
0
 62
7
 10
15.60609348
 20
17.25728000
  0
VERTEX
  8
0
 62
7
 10
15.58358714
 20
17.33226898
  0
VERTEX
  8
0
 62
7
 10
15.55546551
 20
17.40506938
  0
VERTEX
  8
0
 62
7
 10
15.52170773
 20
17.47513133
  0
VERTEX
  8
0
 62
7
 10
15.48229292
 20
17.54190500
  0
VERTEX
  8
0
 62
7
 10
15.43720020
 20
17.60484055
  0
VERTEX
  8
0
 62
7
 10
15.38640871
 20
17.66338813
  0
VERTEX
  8
0
 62
7
 10
15.32989757
 20
17.71699789
  0
VERTEX
  8
0
 62
7
 10
15.26764589
 20
17.76512000
  0
VERTEX
  8
0
 62
7
 10
15.21441555
 20
17.79790938
  0
VERTEX
  8
0
 62
7
 10
15.15842975
 20
17.82595500
  0
VERTEX
  8
0
 62
7
 10
15.10094097
 20
17.85141313
  0
VERTEX
  8
0
 62
7
 10
15.04320170
 20
17.87644000
  0
VERTEX
  8
0
 62
7
 10
15.00967702
 20
17.88986625
  0
VERTEX
  8
0
 62
7
 10
14.97540085
 20
17.90243000
  0
VERTEX
  8
0
 62
7
 10
14.94162567
 20
17.91602875
  0
VERTEX
  8
0
 62
7
 10
14.90960397
 20
17.93256000
  0
VERTEX
  8
0
 62
7
 10
14.87930616
 20
17.95216930
  0
VERTEX
  8
0
 62
7
 10
14.85058438
 20
17.97368688
  0
VERTEX
  8
0
 62
7
 10
14.82351171
 20
17.99703727
  0
VERTEX
  8
0
 62
7
 10
14.79816119
 20
18.02214500
  0
VERTEX
  8
0
 62
7
 10
14.77460589
 20
18.04893461
  0
VERTEX
  8
0
 62
7
 10
14.75291887
 20
18.07733063
  0
VERTEX
  8
0
 62
7
 10
14.73317320
 20
18.10725758
  0
VERTEX
  8
0
 62
7
 10
14.71544193
 20
18.13864000
  0
VERTEX
  8
0
 62
7
 10
14.69761498
 20
18.08254875
  0
VERTEX
  8
0
 62
7
 10
14.68170850
 20
18.02594000
  0
VERTEX
  8
0
 62
7
 10
14.66797298
 20
17.96864125
  0
VERTEX
  8
0
 62
7
 10
14.65665892
 20
17.91048000
  0
VERTEX
  8
0
 62
7
 10
14.64975137
 20
17.86846210
  0
VERTEX
  8
0
 62
7
 10
14.64377405
 20
17.82627305
  0
VERTEX
  8
0
 62
7
 10
14.63880132
 20
17.78395731
  0
VERTEX
  8
0
 62
7
 10
14.63490754
 20
17.74155938
  0
VERTEX
  8
0
 62
7
 10
14.63216709
 20
17.69912370
  0
VERTEX
  8
0
 62
7
 10
14.63065433
 20
17.65669477
  0
VERTEX
  8
0
 62
7
 10
14.63044363
 20
17.61431704
  0
VERTEX
  8
0
 62
7
 10
14.63160935
 20
17.57203500
  0
VERTEX
  8
0
 62
7
 10
14.63422585
 20
17.52989312
  0
VERTEX
  8
0
 62
7
 10
14.63836752
 20
17.48793586
  0
VERTEX
  8
0
 62
7
 10
14.64410870
 20
17.44620771
  0
VERTEX
  8
0
 62
7
 10
14.65152376
 20
17.40475313
  0
VERTEX
  8
0
 62
7
 10
14.66068708
 20
17.36361659
  0
VERTEX
  8
0
 62
7
 10
14.67167301
 20
17.32284258
  0
VERTEX
  8
0
 62
7
 10
14.68455593
 20
17.28247556
  0
VERTEX
  8
0
 62
7
 10
14.69941020
 20
17.24256000
  0
VERTEX
  8
0
 62
7
 10
14.72993937
 20
17.17277297
  0
VERTEX
  8
0
 62
7
 10
14.76529058
 20
17.10568125
  0
VERTEX
  8
0
 62
7
 10
14.80527596
 20
17.04147891
  0
VERTEX
  8
0
 62
7
 10
14.84970765
 20
16.98036000
  0
VERTEX
  8
0
 62
7
 10
14.89839776
 20
16.92251859
  0
VERTEX
  8
0
 62
7
 10
14.95115843
 20
16.86814875
  0
VERTEX
  8
0
 62
7
 10
15.00780178
 20
16.81744453
  0
VERTEX
  8
0
 62
7
 10
15.06813994
 20
16.77060000
  0
VERTEX
  8
0
 62
7
 10
15.33978867
 20
16.77612000
  0
VERTEX
  8
0
 62
7
 10
15.32384914
 20
16.83110977
  0
VERTEX
  8
0
 62
7
 10
15.30729380
 20
16.88621813
  0
VERTEX
  8
0
 62
7
 10
15.28992436
 20
16.94121867
  0
VERTEX
  8
0
 62
7
 10
15.27154249
 20
16.99588500
  0
VERTEX
  8
0
 62
7
 10
15.25194990
 20
17.04999070
  0
VERTEX
  8
0
 62
7
 10
15.23094826
 20
17.10330938
  0
VERTEX
  8
0
 62
7
 10
15.20833928
 20
17.15561461
  0
VERTEX
  8
0
 62
7
 10
15.18392465
 20
17.20668000
  0
VERTEX
  8
0
 62
7
 10
15.14822552
 20
17.27711211
  0
VERTEX
  8
0
 62
7
 10
15.11058506
 20
17.34682188
  0
VERTEX
  8
0
 62
7
 10
15.07098237
 20
17.41560445
  0
VERTEX
  8
0
 62
7
 10
15.02939660
 20
17.48325500
  0
VERTEX
  8
0
 62
7
 10
14.98580686
 20
17.54956867
  0
VERTEX
  8
0
 62
7
 10
14.94019228
 20
17.61434063
  0
VERTEX
  8
0
 62
7
 10
14.89253198
 20
17.67736602
  0
VERTEX
  8
0
 62
7
 10
14.84280510
 20
17.73844000
  0
VERTEX
  8
0
 62
7
 10
14.87308725
 20
17.76420000
  0
VERTEX
  8
0
 62
7
 10
14.92468590
 20
17.70217906
  0
VERTEX
  8
0
 62
7
 10
14.97509469
 20
17.63890750
  0
VERTEX
  8
0
 62
7
 10
15.02404225
 20
17.57434219
  0
VERTEX
  8
0
 62
7
 10
15.07125722
 20
17.50844000
  0
VERTEX
  8
0
 62
7
 10
15.11646823
 20
17.44115781
  0
VERTEX
  8
0
 62
7
 10
15.15940390
 20
17.37245250
  0
VERTEX
  8
0
 62
7
 10
15.19979286
 20
17.30228094
  0
VERTEX
  8
0
 62
7
 10
15.23736374
 20
17.23060000
  0
VERTEX
  8
0
 62
7
 10
15.28847879
 20
17.12313250
  0
VERTEX
  8
0
 62
7
 10
15.33834136
 20
17.00842000
  0
VERTEX
  8
0
 62
7
 10
15.38402900
 20
16.89163750
  0
VERTEX
  8
0
 62
7
 10
15.42261926
 20
16.77796000
  0
VERTEX
  8
0
 62
7
 10
15.61856261
 20
16.78072000
  0
SEQEND
  0
POLYLINE
  8
0
 62
7
 66
1
 70
1
  0
VERTEX
  8
0
 62
7
 10
15.70800000
 20
16.78200000
  0
VERTEX
  8
0
 62
7
 10
15.71603125
 20
16.84039063
  0
VERTEX
  8
0
 62
7
 10
15.72200000
 20
16.90262500
  0
VERTEX
  8
0
 62
7
 10
15.72571875
 20
16.96354688
  0
VERTEX
  8
0
 62
7
 10
15.72700000
 20
17.01800000
  0
VERTEX
  8
0
 62
7
 10
15.72492188
 20
17.08396875
  0
VERTEX
  8
0
 62
7
 10
15.71862500
 20
17.14975000
  0
VERTEX
  8
0
 62
7
 10
15.70801563
 20
17.21515625
  0
VERTEX
  8
0
 62
7
 10
15.69300000
 20
17.28000000
  0
VERTEX
  8
0
 62
7
 10
15.66856250
 20
17.36135938
  0
VERTEX
  8
0
 62
7
 10
15.63793750
 20
17.44075000
  0
VERTEX
  8
0
 62
7
 10
15.60103125
 20
17.51751563
  0
VERTEX
  8
0
 62
7
 10
15.55775000
 20
17.59100000
  0
VERTEX
  8
0
 62
7
 10
15.50800000
 20
17.66054688
  0
VERTEX
  8
0
 62
7
 10
15.45168750
 20
17.72550000
  0
VERTEX
  8
0
 62
7
 10
15.38871875
 20
17.78520313
  0
VERTEX
  8
0
 62
7
 10
15.31900000
 20
17.83900000
  0
VERTEX
  8
0
 62
7
 10
15.26996875
 20
17.86954688
  0
VERTEX
  8
0
 62
7
 10
15.22000000
 20
17.89587500
  0
VERTEX
  8
0
 62
7
 10
15.17078125
 20
17.91901563
  0
VERTEX
  8
0
 62
7
 10
15.12400000
 20
17.94000000
  0
VERTEX
  8
0
 62
7
 10
15.08000000
 20
17.95900000
  0
VERTEX
  8
0
 62
7
 10
15.02400000
 20
17.98100000
  0
VERTEX
  8
0
 62
7
 10
14.98475000
 20
17.99550000
  0
VERTEX
  8
0
 62
7
 10
14.95600000
 20
18.01000000
  0
VERTEX
  8
0
 62
7
 10
14.90693750
 20
18.04401563
  0
VERTEX
  8
0
 62
7
 10
14.86350000
 20
18.08412500
  0
VERTEX
  8
0
 62
7
 10
14.82606250
 20
18.12967188
  0
VERTEX
  8
0
 62
7
 10
14.79500000
 20
18.18000000
  0
VERTEX
  8
0
 62
7
 10
14.77831250
 20
18.20261523
  0
VERTEX
  8
0
 62
7
 10
14.75712500
 20
18.21804688
  0
VERTEX
  8
0
 62
7
 10
14.73312500
 20
18.22642383
  0
VERTEX
  8
0
 62
7
 10
14.70800000
 20
18.22787500
  0
VERTEX
  8
0
 62
7
 10
14.68343750
 20
18.22252930
  0
VERTEX
  8
0
 62
7
 10
14.66112500
 20
18.21051563
  0
VERTEX
  8
0
 62
7
 10
14.64275000
 20
18.19196289
  0
VERTEX
  8
0
 62
7
 10
14.63000000
 20
18.16700000
  0
VERTEX
  8
0
 62
7
 10
14.61145313
 20
18.10810938
  0
VERTEX
  8
0
 62
7
 10
14.59487500
 20
18.04837500
  0
VERTEX
  8
0
 62
7
 10
14.58035938
 20
17.98770313
  0
VERTEX
  8
0
 62
7
 10
14.56800000
 20
17.92600000
  0
VERTEX
  8
0
 62
7
 10
14.55660938
 20
17.85273438
  0
VERTEX
  8
0
 62
7
 10
14.54812500
 20
17.77862500
  0
VERTEX
  8
0
 62
7
 10
14.54282813
 20
17.70395313
  0
VERTEX
  8
0
 62
7
 10
14.54100000
 20
17.62900000
  0
VERTEX
  8
0
 62
7
 10
14.54200781
 20
17.57637695
  0
VERTEX
  8
0
 62
7
 10
14.54512500
 20
17.52357813
  0
VERTEX
  8
0
 62
7
 10
14.55049219
 20
17.47070898
  0
VERTEX
  8
0
 62
7
 10
14.55825000
 20
17.41787500
  0
VERTEX
  8
0
 62
7
 10
14.56853906
 20
17.36518164
  0
VERTEX
  8
0
 62
7
 10
14.58150000
 20
17.31273438
  0
VERTEX
  8
0
 62
7
 10
14.59727344
 20
17.26063867
  0
VERTEX
  8
0
 62
7
 10
14.61600000
 20
17.20900000
  0
VERTEX
  8
0
 62
7
 10
14.64331250
 20
17.14583398
  0
VERTEX
  8
0
 62
7
 10
14.67418750
 20
17.08467188
  0
VERTEX
  8
0
 62
7
 10
14.70853125
 20
17.02564258
  0
VERTEX
  8
0
 62
7
 10
14.74625000
 20
16.96887500
  0
VERTEX
  8
0
 62
7
 10
14.78725000
 20
16.91449805
  0
VERTEX
  8
0
 62
7
 10
14.83143750
 20
16.86264063
  0
VERTEX
  8
0
 62
7
 10
14.87871875
 20
16.81343164
  0
VERTEX
  8
0
 62
7
 10
14.92900000
 20
16.76700000
  0
VERTEX
  8
0
 62
7
 10
14.47424414
 20
16.75384375
  0
VERTEX
  8
0
 62
7
 10
14.02053125
 20
16.73726563
  0
VERTEX
  8
0
 62
7
 10
13.56794336
 20
16.71728906
  0
VERTEX
  8
0
 62
7
 10
13.11656250
 20
16.69393750
  0
VERTEX
  8
0
 62
7
 10
12.66647070
 20
16.66723438
  0
VERTEX
  8
0
 62
7
 10
12.21775000
 20
16.63720313
  0
VERTEX
  8
0
 62
7
 10
11.77048242
 20
16.60386719
  0
VERTEX
  8
0
 62
7
 10
11.32475000
 20
16.56725000
  0
VERTEX
  8
0
 62
7
 10
10.88063477
 20
16.52737500
  0
VERTEX
  8
0
 62
7
 10
10.43821875
 20
16.48426563
  0
VERTEX
  8
0
 62
7
 10
9.99758398
 20
16.43794531
  0
VERTEX
  8
0
 62
7
 10
9.55881250
 20
16.38843750
  0
VERTEX
  8
0
 62
7
 10
9.12198633
 20
16.33576563
  0
VERTEX
  8
0
 62
7
 10
8.68718750
 20
16.27995313
  0
VERTEX
  8
0
 62
7
 10
8.25449805
 20
16.22102344
  0
VERTEX
  8
0
 62
7
 10
7.82400000
 20
16.15900000
  0
VERTEX
  8
0
 62
7
 10
7.81431250
 20
16.15860767
  0
VERTEX
  8
0
 62
7
 10
7.80546875
 20
16.16026758
  0
VERTEX
  8
0
 62
7
 10
7.79742188
 20
16.16373511
  0
VERTEX
  8
0
 62
7
 10
7.79012500
 20
16.16876563
  0
VERTEX
  8
0
 62
7
 10
7.78353125
 20
16.17511450
  0
VERTEX
  8
0
 62
7
 10
7.77759375
 20
16.18253711
  0
VERTEX
  8
0
 62
7
 10
7.77226563
 20
16.19078882
  0
VERTEX
  8
0
 62
7
 10
7.76750000
 20
16.19962500
  0
VERTEX
  8
0
 62
7
 10
7.76325000
 20
16.20880103
  0
VERTEX
  8
0
 62
7
 10
7.75946875
 20
16.21807227
  0
VERTEX
  8
0
 62
7
 10
7.75610938
 20
16.22719409
  0
VERTEX
  8
0
 62
7
 10
7.75312500
 20
16.23592188
  0
VERTEX
  8
0
 62
7
 10
7.75046875
 20
16.24401099
  0
VERTEX
  8
0
 62
7
 10
7.74809375
 20
16.25121680
  0
VERTEX
  8
0
 62
7
 10
7.74595313
 20
16.25729468
  0
VERTEX
  8
0
 62
7
 10
7.74400000
 20
16.26200000
  0
VERTEX
  8
0
 62
7
 10
7.69038696
 20
16.36158179
  0
VERTEX
  8
0
 62
7
 10
7.63253320
 20
16.45541992
  0
VERTEX
  8
0
 62
7
 10
7.57079175
 20
16.54384106
  0
VERTEX
  8
0
 62
7
 10
7.50551563
 20
16.62717188
  0
VERTEX
  8
0
 62
7
 10
7.43705786
 20
16.70573901
  0
VERTEX
  8
0
 62
7
 10
7.36577148
 20
16.77986914
  0
VERTEX
  8
0
 62
7
 10
7.29200952
 20
16.84988892
  0
VERTEX
  8
0
 62
7
 10
7.21612500
 20
16.91612500
  0
VERTEX
  8
0
 62
7
 10
7.13847095
 20
16.97890405
  0
VERTEX
  8
0
 62
7
 10
7.05940039
 20
17.03855273
  0
VERTEX
  8
0
 62
7
 10
6.97926636
 20
17.09539771
  0
VERTEX
  8
0
 62
7
 10
6.89842188
 20
17.14976563
  0
VERTEX
  8
0
 62
7
 10
6.81721997
 20
17.20198315
  0
VERTEX
  8
0
 62
7
 10
6.73601367
 20
17.25237695
  0
VERTEX
  8
0
 62
7
 10
6.65515601
 20
17.30127368
  0
VERTEX
  8
0
 62
7
 10
6.57500000
 20
17.34900000
  0
VERTEX
  8
0
 62
7
 10
6.50831592
 20
17.38721167
  0
VERTEX
  8
0
 62
7
 10
6.43963672
 20
17.42411523
  0
VERTEX
  8
0
 62
7
 10
6.36914697
 20
17.45955103
  0
VERTEX
  8
0
 62
7
 10
6.29703125
 20
17.49335938
  0
VERTEX
  8
0
 62
7
 10
6.22347412
 20
17.52538062
  0
VERTEX
  8
0
 62
7
 10
6.14866016
 20
17.55545508
  0
VERTEX
  8
0
 62
7
 10
6.07277393
 20
17.58342310
  0
VERTEX
  8
0
 62
7
 10
5.99600000
 20
17.60912500
  0
VERTEX
  8
0
 62
7
 10
5.91852295
 20
17.63240112
  0
VERTEX
  8
0
 62
7
 10
5.84052734
 20
17.65309180
  0
VERTEX
  8
0
 62
7
 10
5.76219775
 20
17.67103735
  0
VERTEX
  8
0
 62
7
 10
5.68371875
 20
17.68607813
  0
VERTEX
  8
0
 62
7
 10
5.60527490
 20
17.69805444
  0
VERTEX
  8
0
 62
7
 10
5.52705078
 20
17.70680664
  0
VERTEX
  8
0
 62
7
 10
5.44923096
 20
17.71217505
  0
VERTEX
  8
0
 62
7
 10
5.37200000
 20
17.71400000
  0
VERTEX
  8
0
 62
7
 10
5.30489331
 20
17.71339771
  0
VERTEX
  8
0
 62
7
 10
5.23859961
 20
17.71152539
  0
VERTEX
  8
0
 62
7
 10
5.17315845
 20
17.70828491
  0
VERTEX
  8
0
 62
7
 10
5.10860938
 20
17.70357813
  0
VERTEX
  8
0
 62
7
 10
5.04499194
 20
17.69730688
  0
VERTEX
  8
0
 62
7
 10
4.98234570
 20
17.68937305
  0
VERTEX
  8
0
 62
7
 10
4.92071021
 20
17.67967847
  0
VERTEX
  8
0
 62
7
 10
4.86012500
 20
17.66812500
  0
VERTEX
  8
0
 62
7
 10
4.80062964
 20
17.65461450
  0
VERTEX
  8
0
 62
7
 10
4.74226367
 20
17.63904883
  0
VERTEX
  8
0
 62
7
 10
4.68506665
 20
17.62132983
  0
VERTEX
  8
0
 62
7
 10
4.62907813
 20
17.60135938
  0
VERTEX
  8
0
 62
7
 10
4.57433765
 20
17.57903931
  0
VERTEX
  8
0
 62
7
 10
4.52088477
 20
17.55427148
  0
VERTEX
  8
0
 62
7
 10
4.46875903
 20
17.52695776
  0
VERTEX
  8
0
 62
7
 10
4.41800000
 20
17.49700000
  0
VERTEX
  8
0
 62
7
 10
4.38941309
 20
17.47746289
  0
VERTEX
  8
0
 62
7
 10
4.36288281
 20
17.45606250
  0
VERTEX
  8
0
 62
7
 10
4.33837988
 20
17.43292773
  0
VERTEX
  8
0
 62
7
 10
4.31587500
 20
17.40818750
  0
VERTEX
  8
0
 62
7
 10
4.29533887
 20
17.38197070
  0
VERTEX
  8
0
 62
7
 10
4.27674219
 20
17.35440625
  0
VERTEX
  8
0
 62
7
 10
4.26005566
 20
17.32562305
  0
VERTEX
  8
0
 62
7
 10
4.24525000
 20
17.29575000
  0
VERTEX
  8
0
 62
7
 10
4.23229590
 20
17.26491602
  0
VERTEX
  8
0
 62
7
 10
4.22116406
 20
17.23325000
  0
VERTEX
  8
0
 62
7
 10
4.21182520
 20
17.20088086
  0
VERTEX
  8
0
 62
7
 10
4.20425000
 20
17.16793750
  0
VERTEX
  8
0
 62
7
 10
4.19840918
 20
17.13454883
  0
VERTEX
  8
0
 62
7
 10
4.19427344
 20
17.10084375
  0
VERTEX
  8
0
 62
7
 10
4.19181348
 20
17.06695117
  0
VERTEX
  8
0
 62
7
 10
4.19100000
 20
17.03300000
  0
VERTEX
  8
0
 62
7
 10
4.18000000
 20
7.22300000
  0
VERTEX
  8
0
 62
7
 10
4.17325000
 20
7.15925000
  0
VERTEX
  8
0
 62
7
 10
4.17100000
 20
7.09400000
  0
VERTEX
  8
0
 62
7
 10
4.17303906
 20
7.03040820
  0
VERTEX
  8
0
 62
7
 10
4.17906250
 20
6.96795313
  0
VERTEX
  8
0
 62
7
 10
4.18892969
 20
6.90674023
  0
VERTEX
  8
0
 62
7
 10
4.20250000
 20
6.84687500
  0
VERTEX
  8
0
 62
7
 10
4.21963281
 20
6.78846289
  0
VERTEX
  8
0
 62
7
 10
4.24018750
 20
6.73160938
  0
VERTEX
  8
0
 62
7
 10
4.26402344
 20
6.67641992
  0
VERTEX
  8
0
 62
7
 10
4.29100000
 20
6.62300000
  0
VERTEX
  8
0
 62
7
 10
4.31500000
 20
6.59200000
  0
VERTEX
  8
0
 62
7
 10
4.35145752
 20
6.54763501
  0
VERTEX
  8
0
 62
7
 10
4.38991016
 20
6.50497070
  0
VERTEX
  8
0
 62
7
 10
4.43029053
 20
6.46409058
  0
VERTEX
  8
0
 62
7
 10
4.47253125
 20
6.42507813
  0
VERTEX
  8
0
 62
7
 10
4.51656494
 20
6.38801685
  0
VERTEX
  8
0
 62
7
 10
4.56232422
 20
6.35299023
  0
VERTEX
  8
0
 62
7
 10
4.60974170
 20
6.32008179
  0
VERTEX
  8
0
 62
7
 10
4.65875000
 20
6.28937500
  0
VERTEX
  8
0
 62
7
 10
4.70928174
 20
6.26095337
  0
VERTEX
  8
0
 62
7
 10
4.76126953
 20
6.23490039
  0
VERTEX
  8
0
 62
7
 10
4.81464600
 20
6.21129956
  0
VERTEX
  8
0
 62
7
 10
4.86934375
 20
6.19023438
  0
VERTEX
  8
0
 62
7
 10
4.92529541
 20
6.17178833
  0
VERTEX
  8
0
 62
7
 10
4.98243359
 20
6.15604492
  0
VERTEX
  8
0
 62
7
 10
5.04069092
 20
6.14308765
  0
VERTEX
  8
0
 62
7
 10
5.10000000
 20
6.13300000
  0
VERTEX
  8
0
 62
7
 10
5.06409961
 20
6.09927344
  0
VERTEX
  8
0
 62
7
 10
5.03104688
 20
6.06156250
  0
VERTEX
  8
0
 62
7
 10
5.00143945
 20
6.02057031
  0
VERTEX
  8
0
 62
7
 10
4.97587500
 20
5.97700000
  0
VERTEX
  8
0
 62
7
 10
4.95495117
 20
5.93155469
  0
VERTEX
  8
0
 62
7
 10
4.93926563
 20
5.88493750
  0
VERTEX
  8
0
 62
7
 10
4.92941602
 20
5.83785156
  0
VERTEX
  8
0
 62
7
 10
4.92600000
 20
5.79100000
  0
VERTEX
  8
0
 62
7
 10
4.92832031
 20
5.74739844
  0
VERTEX
  8
0
 62
7
 10
4.93537500
 20
5.70393750
  0
VERTEX
  8
0
 62
7
 10
4.94730469
 20
5.66113281
  0
VERTEX
  8
0
 62
7
 10
4.96425000
 20
5.61950000
  0
VERTEX
  8
0
 62
7
 10
4.98635156
 20
5.57955469
  0
VERTEX
  8
0
 62
7
 10
5.01375000
 20
5.54181250
  0
VERTEX
  8
0
 62
7
 10
5.04658594
 20
5.50678906
  0
VERTEX
  8
0
 62
7
 10
5.08500000
 20
5.47500000
  0
VERTEX
  8
0
 62
7
 10
5.11208594
 20
5.45638867
  0
VERTEX
  8
0
 62
7
 10
5.14006250
 20
5.44029688
  0
VERTEX
  8
0
 62
7
 10
5.16888281
 20
5.42671289
  0
VERTEX
  8
0
 62
7
 10
5.19850000
 20
5.41562500
  0
VERTEX
  8
0
 62
7
 10
5.22886719
 20
5.40702148
  0
VERTEX
  8
0
 62
7
 10
5.25993750
 20
5.40089063
  0
VERTEX
  8
0
 62
7
 10
5.29166406
 20
5.39722070
  0
VERTEX
  8
0
 62
7
 10
5.32400000
 20
5.39600000
  0
VERTEX
  8
0
 62
7
 10
5.35306836
 20
5.39709375
  0
VERTEX
  8
0
 62
7
 10
5.38292188
 20
5.40062500
  0
VERTEX
  8
0
 62
7
 10
5.41303320
 20
5.40696875
  0
VERTEX
  8
0
 62
7
 10
5.44287500
 20
5.41650000
  0
VERTEX
  8
0
 62
7
 10
5.47191992
 20
5.42959375
  0
VERTEX
  8
0
 62
7
 10
5.49964063
 20
5.44662500
  0
VERTEX
  8
0
 62
7
 10
5.52550977
 20
5.46796875
  0
VERTEX
  8
0
 62
7
 10
5.54900000
 20
5.49400000
  0
VERTEX
  8
0
 62
7
 10
5.57162500
 20
5.52817188
  0
VERTEX
  8
0
 62
7
 10
5.58825000
 20
5.56562500
  0
VERTEX
  8
0
 62
7
 10
5.59850000
 20
5.60551563
  0
VERTEX
  8
0
 62
7
 10
5.60200000
 20
5.64700000
  0
VERTEX
  8
0
 62
7
 10
5.60000000
 20
5.67900000
  0
VERTEX
  8
0
 62
7
 10
5.59554688
 20
5.70409375
  0
VERTEX
  8
0
 62
7
 10
5.58837500
 20
5.72825000
  0
VERTEX
  8
0
 62
7
 10
5.57876563
 20
5.75128125
  0
VERTEX
  8
0
 62
7
 10
5.56700000
 20
5.77300000
  0
VERTEX
  8
0
 62
7
 10
5.59350000
 20
5.73389063
  0
VERTEX
  8
0
 62
7
 10
5.61850000
 20
5.69037500
  0
VERTEX
  8
0
 62
7
 10
5.64125000
 20
5.64292188
  0
VERTEX
  8
0
 62
7
 10
5.66100000
 20
5.59200000
  0
VERTEX
  8
0
 62
7
 10
5.67701563
 20
5.53743750
  0
VERTEX
  8
0
 62
7
 10
5.68787500
 20
5.48175000
  0
VERTEX
  8
0
 62
7
 10
5.69404688
 20
5.42493750
  0
VERTEX
  8
0
 62
7
 10
5.69600000
 20
5.36700000
  0
VERTEX
  8
0
 62
7
 10
5.69328125
 20
5.29954688
  0
VERTEX
  8
0
 62
7
 10
5.68550000
 20
5.23087500
  0
VERTEX
  8
0
 62
7
 10
5.67321875
 20
5.16126563
  0
VERTEX
  8
0
 62
7
 10
5.65700000
 20
5.09100000
  0
VERTEX
  8
0
 62
7
 10
5.64306250
 20
5.03898438
  0
VERTEX
  8
0
 62
7
 10
5.62875000
 20
4.99212500
  0
VERTEX
  8
0
 62
7
 10
5.61256250
 20
4.94995313
  0
VERTEX
  8
0
 62
7
 10
5.59300000
 20
4.91200000
  0
VERTEX
  8
0
 62
7
 10
5.55374023
 20
4.85453711
  0
VERTEX
  8
0
 62
7
 10
5.51029688
 20
4.80067188
  0
VERTEX
  8
0
 62
7
 10
5.46279883
 20
4.75043945
  0
VERTEX
  8
0
 62
7
 10
5.41137500
 20
4.70387500
  0
VERTEX
  8
0
 62
7
 10
5.35615430
 20
4.66101367
  0
VERTEX
  8
0
 62
7
 10
5.29726563
 20
4.62189063
  0
VERTEX
  8
0
 62
7
 10
5.23483789
 20
4.58654102
  0
VERTEX
  8
0
 62
7
 10
5.16900000
 20
4.55500000
  0
VERTEX
  8
0
 62
7
 10
5.16100000
 20
4.55200000
  0
VERTEX
  8
0
 62
7
 10
5.06250000
 20
4.50853125
  0
VERTEX
  8
0
 62
7
 10
4.96175000
 20
4.46300000
  0
VERTEX
  8
0
 62
7
 10
4.86512500
 20
4.41671875
  0
VERTEX
  8
0
 62
7
 10
4.77900000
 20
4.37100000
  0
VERTEX
  8
0
 62
7
 10
4.74400000
 20
4.35100000
  0
VERTEX
  8
0
 62
7
 10
4.65600000
 20
4.35100000
  0
VERTEX
  8
0
 62
7
 10
4.62500000
 20
4.35100000
  0
VERTEX
  8
0
 62
7
 10
4.57331055
 20
4.34780859
  0
VERTEX
  8
0
 62
7
 10
4.52404688
 20
4.33896875
  0
VERTEX
  8
0
 62
7
 10
4.47729102
 20
4.32558203
  0
VERTEX
  8
0
 62
7
 10
4.43312500
 20
4.30875000
  0
VERTEX
  8
0
 62
7
 10
4.39163086
 20
4.28957422
  0
VERTEX
  8
0
 62
7
 10
4.35289063
 20
4.26915625
  0
VERTEX
  8
0
 62
7
 10
4.31698633
 20
4.24859766
  0
VERTEX
  8
0
 62
7
 10
4.28400000
 20
4.22900000
  0
VERTEX
  8
0
 62
7
 10
4.22300000
 20
4.19300000
  0
VERTEX
  8
0
 62
7
 10
4.08381641
 20
4.11940430
  0
VERTEX
  8
0
 62
7
 10
3.93546875
 20
4.04617188
  0
VERTEX
  8
0
 62
7
 10
3.77901172
 20
3.97413477
  0
VERTEX
  8
0
 62
7
 10
3.61550000
 20
3.90412500
  0
VERTEX
  8
0
 62
7
 10
3.44598828
 20
3.83697461
  0
VERTEX
  8
0
 62
7
 10
3.27153125
 20
3.77351563
  0
VERTEX
  8
0
 62
7
 10
3.09318359
 20
3.71458008
  0
VERTEX
  8
0
 62
7
 10
2.91200000
 20
3.66100000
  0
VERTEX
  8
0
 62
7
 10
2.74300000
 20
3.69900000
  0
VERTEX
  8
0
 62
7
 10
2.71214258
 20
3.70558398
  0
VERTEX
  8
0
 62
7
 10
2.67295313
 20
3.71360938
  0
VERTEX
  8
0
 62
7
 10
2.62788086
 20
3.72236133
  0
VERTEX
  8
0
 62
7
 10
2.57937500
 20
3.73112500
  0
VERTEX
  8
0
 62
7
 10
2.52988477
 20
3.73918555
  0
VERTEX
  8
0
 62
7
 10
2.48185938
 20
3.74582813
  0
VERTEX
  8
0
 62
7
 10
2.43774805
 20
3.75033789
  0
VERTEX
  8
0
 62
7
 10
2.40000000
 20
3.75200000
  0
VERTEX
  8
0
 62
7
 10
2.33574023
 20
3.75010938
  0
VERTEX
  8
0
 62
7
 10
2.27273438
 20
3.74456250
  0
VERTEX
  8
0
 62
7
 10
2.21101758
 20
3.73554688
  0
VERTEX
  8
0
 62
7
 10
2.15062500
 20
3.72325000
  0
VERTEX
  8
0
 62
7
 10
2.09159180
 20
3.70785938
  0
VERTEX
  8
0
 62
7
 10
2.03395313
 20
3.68956250
  0
VERTEX
  8
0
 62
7
 10
1.97774414
 20
3.66854688
  0
VERTEX
  8
0
 62
7
 10
1.92300000
 20
3.64500000
  0
VERTEX
  8
0
 62
7
 10
1.87400000
 20
3.62900000
  0
VERTEX
  8
0
 62
7
 10
1.85200000
 20
3.62200000
  0
VERTEX
  8
0
 62
7
 10
1.71856250
 20
3.58285938
  0
VERTEX
  8
0
 62
7
 10
1.58850000
 20
3.54887500
  0
VERTEX
  8
0
 62
7
 10
1.45768750
 20
3.51920313
  0
VERTEX
  8
0
 62
7
 10
1.32200000
 20
3.49300000
  0
VERTEX
  8
0
 62
7
 10
1.21604688
 20
3.47493750
  0
VERTEX
  8
0
 62
7
 10
1.10962500
 20
3.45950000
  0
VERTEX
  8
0
 62
7
 10
1.00264063
 20
3.44631250
  0
VERTEX
  8
0
 62
7
 10
.89500000
 20
3.43500000
  0
VERTEX
  8
0
 62
7
 10
.71948438
 20
3.41909375
  0
VERTEX
  8
0
 62
7
 10
.54387500
 20
3.40750000
  0
VERTEX
  8
0
 62
7
 10
.36807813
 20
3.40040625
  0
VERTEX
  8
0
 62
7
 10
.19200000
 20
3.39800000
  0
VERTEX
  8
0
 62
7
 10
-.00300000
 20
3.40100000
  0
VERTEX
  8
0
 62
7
 10
.00400000
 20
2.97100000
  0
VERTEX
  8
0
 62
7
 10
.30950195
 20
2.98401172
  0
VERTEX
  8
0
 62
7
 10
.61782813
 20
3.00140625
  0
VERTEX
  8
0
 62
7
 10
.92795898
 20
3.02334766
  0
VERTEX
  8
0
 62
7
 10
1.23887500
 20
3.05000000
  0
VERTEX
  8
0
 62
7
 10
1.54955664
 20
3.08152734
  0
VERTEX
  8
0
 62
7
 10
1.85898438
 20
3.11809375
  0
VERTEX
  8
0
 62
7
 10
2.16613867
 20
3.15986328
  0
VERTEX
  8
0
 62
7
 10
2.47000000
 20
3.20700000
  0
VERTEX
  8
0
 62
7
 10
2.71382568
 20
3.24962988
  0
VERTEX
  8
0
 62
7
 10
2.95346484
 20
3.29627344
  0
VERTEX
  8
0
 62
7
 10
3.18916064
 20
3.34712402
  0
VERTEX
  8
0
 62
7
 10
3.42115625
 20
3.40237500
  0
VERTEX
  8
0
 62
7
 10
3.64969482
 20
3.46221973
  0
VERTEX
  8
0
 62
7
 10
3.87501953
 20
3.52685156
  0
VERTEX
  8
0
 62
7
 10
4.09737354
 20
3.59646387
  0
VERTEX
  8
0
 62
7
 10
4.31700000
 20
3.67125000
  0
VERTEX
  8
0
 62
7
 10
4.53414209
 20
3.75140332
  0
VERTEX
  8
0
 62
7
 10
4.74904297
 20
3.83711719
  0
VERTEX
  8
0
 62
7
 10
4.96194580
 20
3.92858496
  0
VERTEX
  8
0
 62
7
 10
5.17309375
 20
4.02600000
  0
VERTEX
  8
0
 62
7
 10
5.38272998
 20
4.12955566
  0
VERTEX
  8
0
 62
7
 10
5.59109766
 20
4.23944531
  0
VERTEX
  8
0
 62
7
 10
5.79843994
 20
4.35586230
  0
VERTEX
  8
0
 62
7
 10
6.00500000
 20
4.47900000
  0
VERTEX
  8
0
 62
7
 10
6.07818750
 20
4.52104688
  0
VERTEX
  8
0
 62
7
 10
6.16000000
 20
4.56337500
  0
VERTEX
  8
0
 62
7
 10
6.24856250
 20
4.60626563
  0
VERTEX
  8
0
 62
7
 10
6.34200000
 20
4.65000000
  0
VERTEX
  8
0
 62
7
 10
6.45685938
 20
4.70425000
  0
VERTEX
  8
0
 62
7
 10
6.57162500
 20
4.76075000
  0
VERTEX
  8
0
 62
7
 10
6.68132813
 20
4.81987500
  0
VERTEX
  8
0
 62
7
 10
6.78100000
 20
4.88200000
  0
VERTEX
  8
0
 62
7
 10
6.82340625
 20
4.83786133
  0
VERTEX
  8
0
 62
7
 10
6.87031250
 20
4.79926563
  0
VERTEX
  8
0
 62
7
 10
6.92162500
 20
4.76631836
  0
VERTEX
  8
0
 62
7
 10
6.97725000
 20
4.73912500
  0
VERTEX
  8
0
 62
7
 10
7.03709375
 20
4.71779102
  0
VERTEX
  8
0
 62
7
 10
7.10106250
 20
4.70242188
  0
VERTEX
  8
0
 62
7
 10
7.16906250
 20
4.69312305
  0
VERTEX
  8
0
 62
7
 10
7.24100000
 20
4.69000000
  0
VERTEX
  8
0
 62
7
 10
7.28084717
 20
4.69134326
  0
VERTEX
  8
0
 62
7
 10
7.32146484
 20
4.69530859
  0
VERTEX
  8
0
 62
7
 10
7.36259229
 20
4.70179932
  0
VERTEX
  8
0
 62
7
 10
7.40396875
 20
4.71071875
  0
VERTEX
  8
0
 62
7
 10
7.44533350
 20
4.72197021
  0
VERTEX
  8
0
 62
7
 10
7.48642578
 20
4.73545703
  0
VERTEX
  8
0
 62
7
 10
7.52698486
 20
4.75108252
  0
VERTEX
  8
0
 62
7
 10
7.56675000
 20
4.76875000
  0
VERTEX
  8
0
 62
7
 10
7.60546045
 20
4.78836279
  0
VERTEX
  8
0
 62
7
 10
7.64285547
 20
4.80982422
  0
VERTEX
  8
0
 62
7
 10
7.67867432
 20
4.83303760
  0
VERTEX
  8
0
 62
7
 10
7.71265625
 20
4.85790625
  0
VERTEX
  8
0
 62
7
 10
7.74454053
 20
4.88433350
  0
VERTEX
  8
0
 62
7
 10
7.77406641
 20
4.91222266
  0
VERTEX
  8
0
 62
7
 10
7.80097314
 20
4.94147705
  0
VERTEX
  8
0
 62
7
 10
7.82500000
 20
4.97200000
  0
VERTEX
  8
0
 62
7
 10
7.89400000
 20
5.06800000
  0
VERTEX
  8
0
 62
7
 10
7.78300000
 20
5.10900000
  0
VERTEX
  8
0
 62
7
 10
7.74809375
 20
5.12654688
  0
VERTEX
  8
0
 62
7
 10
7.71075000
 20
5.15187500
  0
VERTEX
  8
0
 62
7
 10
7.67753125
 20
5.18001563
  0
VERTEX
  8
0
 62
7
 10
7.65500000
 20
5.20600000
  0
VERTEX
  8
0
 62
7
 10
7.61600000
 20
5.27300000
  0
VERTEX
  8
0
 62
7
 10
7.58675000
 20
5.32475000
  0
VERTEX
  8
0
 62
7
 10
7.55300000
 20
5.37500000
  0
VERTEX
  8
0
 62
7
 10
7.49800000
 20
5.43600000
  0
VERTEX
  8
0
 62
7
 10
7.58212500
 20
5.53606250
  0
VERTEX
  8
0
 62
7
 10
7.67225000
 20
5.63050000
  0
VERTEX
  8
0
 62
7
 10
7.76800000
 20
5.71893750
  0
VERTEX
  8
0
 62
7
 10
7.86900000
 20
5.80100000
  0
VERTEX
  8
0
 62
7
 10
7.89100000
 20
5.81900000
  0
VERTEX
  8
0
 62
7
 10
7.93615430
 20
5.85330273
  0
VERTEX
  8
0
 62
7
 10
7.98035938
 20
5.88623438
  0
VERTEX
  8
0
 62
7
 10
8.02397852
 20
5.91745508
  0
VERTEX
  8
0
 62
7
 10
8.06737500
 20
5.94662500
  0
VERTEX
  8
0
 62
7
 10
8.11091211
 20
5.97340430
  0
VERTEX
  8
0
 62
7
 10
8.15495313
 20
5.99745313
  0
VERTEX
  8
0
 62
7
 10
8.19986133
 20
6.01843164
  0
VERTEX
  8
0
 62
7
 10
8.24600000
 20
6.03600000
  0
VERTEX
  8
0
 62
7
 10
8.31917188
 20
6.05793750
  0
VERTEX
  8
0
 62
7
 10
8.39262500
 20
6.07500000
  0
VERTEX
  8
0
 62
7
 10
8.46551563
 20
6.08606250
  0
VERTEX
  8
0
 62
7
 10
8.53700000
 20
6.09000000
  0
VERTEX
  8
0
 62
7
 10
8.57149023
 20
6.08895313
  0
VERTEX
  8
0
 62
7
 10
8.60517188
 20
6.08575000
  0
VERTEX
  8
0
 62
7
 10
8.63798633
 20
6.08029688
  0
VERTEX
  8
0
 62
7
 10
8.66987500
 20
6.07250000
  0
VERTEX
  8
0
 62
7
 10
8.70077930
 20
6.06226563
  0
VERTEX
  8
0
 62
7
 10
8.73064062
 20
6.04950000
  0
VERTEX
  8
0
 62
7
 10
8.75940039
 20
6.03410938
  0
VERTEX
  8
0
 62
7
 10
8.78700000
 20
6.01600000
  0
VERTEX
  8
0
 62
7
 10
8.81241602
 20
5.99589258
  0
VERTEX
  8
0
 62
7
 10
8.83470313
 20
5.97607813
  0
VERTEX
  8
0
 62
7
 10
8.85391992
 20
5.95656836
  0
VERTEX
  8
0
 62
7
 10
8.87012500
 20
5.93737500
  0
VERTEX
  8
0
 62
7
 10
8.88337695
 20
5.91850977
  0
VERTEX
  8
0
 62
7
 10
8.89373437
 20
5.89998438
  0
VERTEX
  8
0
 62
7
 10
8.90125586
 20
5.88181055
  0
VERTEX
  8
0
 62
7
 10
8.90600000
 20
5.86400000
  0
VERTEX
  8
0
 62
7
 10
8.90900000
 20
5.82400000
  0
VERTEX
  8
0
 62
7
 10
8.90900000
 20
5.81300000
  0
VERTEX
  8
0
 62
7
 10
8.90516406
 20
5.78250977
  0
VERTEX
  8
0
 62
7
 10
8.89687500
 20
5.75357813
  0
VERTEX
  8
0
 62
7
 10
8.88446094
 20
5.72663867
  0
VERTEX
  8
0
 62
7
 10
8.86825000
 20
5.70212500
  0
VERTEX
  8
0
 62
7
 10
8.84857031
 20
5.68047070
  0
VERTEX
  8
0
 62
7
 10
8.82575000
 20
5.66210938
  0
VERTEX
  8
0
 62
7
 10
8.80011719
 20
5.64747461
  0
VERTEX
  8
0
 62
7
 10
8.77200000
 20
5.63700000
  0
VERTEX
  8
0
 62
7
 10
8.74150000
 20
5.63075000
  0
VERTEX
  8
0
 62
7
 10
8.71100000
 20
5.62900000
  0
VERTEX
  8
0
 62
7
 10
8.70100000
 20
5.62900000
  0
VERTEX
  8
0
 62
7
 10
8.67917383
 20
5.63126563
  0
VERTEX
  8
0
 62
7
 10
8.65876563
 20
5.63568750
  0
VERTEX
  8
0
 62
7
 10
8.63988086
 20
5.64207813
  0
VERTEX
  8
0
 62
7
 10
8.62262500
 20
5.65025000
  0
VERTEX
  8
0
 62
7
 10
8.60710352
 20
5.66001563
  0
VERTEX
  8
0
 62
7
 10
8.59342188
 20
5.67118750
  0
VERTEX
  8
0
 62
7
 10
8.58168555
 20
5.68357813
  0
VERTEX
  8
0
 62
7
 10
8.57200000
 20
5.69700000
  0
VERTEX
  8
0
 62
7
 10
8.56354688
 20
5.71248438
  0
VERTEX
  8
0
 62
7
 10
8.55762500
 20
5.72862500
  0
VERTEX
  8
0
 62
7
 10
8.55414063
 20
5.74495313
  0
VERTEX
  8
0
 62
7
 10
8.55300000
 20
5.76100000
  0
VERTEX
  8
0
 62
7
 10
8.55475000
 20
5.78100000
  0
VERTEX
  8
0
 62
7
 10
8.56100000
 20
5.80100000
  0
VERTEX
  8
0
 62
7
 10
8.57215625
 20
5.82212500
  0
VERTEX
  8
0
 62
7
 10
8.58725000
 20
5.84025000
  0
VERTEX
  8
0
 62
7
 10
8.60571875
 20
5.85500000
  0
VERTEX
  8
0
 62
7
 10
8.62700000
 20
5.86600000
  0
VERTEX
  8
0
 62
7
 10
8.65121094
 20
5.87907422
  0
VERTEX
  8
0
 62
7
 10
8.66900000
 20
5.89578125
  0
VERTEX
  8
0
 62
7
 10
8.68022656
 20
5.91497266
  0
VERTEX
  8
0
 62
7
 10
8.68475000
 20
5.93550000
  0
VERTEX
  8
0
 62
7
 10
8.68242969
 20
5.95621484
  0
VERTEX
  8
0
 62
7
 10
8.67312500
 20
5.97596875
  0
VERTEX
  8
0
 62
7
 10
8.65669531
 20
5.99361328
  0
VERTEX
  8
0
 62
7
 10
8.63300000
 20
6.00800000
  0
VERTEX
  8
0
 62
7
 10
8.60539795
 20
6.01904321
  0
VERTEX
  8
0
 62
7
 10
8.57746484
 20
6.02743945
  0
VERTEX
  8
0
 62
7
 10
8.54938525
 20
6.03321362
  0
VERTEX
  8
0
 62
7
 10
8.52134375
 20
6.03639063
  0
VERTEX
  8
0
 62
7
 10
8.49352490
 20
6.03699536
  0
VERTEX
  8
0
 62
7
 10
8.46611328
 20
6.03505273
  0
VERTEX
  8
0
 62
7
 10
8.43929346
 20
6.03058765
  0
VERTEX
  8
0
 62
7
 10
8.41325000
 20
6.02362500
  0
VERTEX
  8
0
 62
7
 10
8.38816748
 20
6.01418970
  0
VERTEX
  8
0
 62
7
 10
8.36423047
 20
6.00230664
  0
VERTEX
  8
0
 62
7
 10
8.34162354
 20
5.98800073
  0
VERTEX
  8
0
 62
7
 10
8.32053125
 20
5.97129688
  0
VERTEX
  8
0
 62
7
 10
8.30113818
 20
5.95221997
  0
VERTEX
  8
0
 62
7
 10
8.28362891
 20
5.93079492
  0
VERTEX
  8
0
 62
7
 10
8.26818799
 20
5.90704663
  0
VERTEX
  8
0
 62
7
 10
8.25500000
 20
5.88100000
  0
VERTEX
  8
0
 62
7
 10
8.24334375
 20
5.85010938
  0
VERTEX
  8
0
 62
7
 10
8.23525000
 20
5.81912500
  0
VERTEX
  8
0
 62
7
 10
8.23053125
 20
5.78832813
  0
VERTEX
  8
0
 62
7
 10
8.22900000
 20
5.75800000
  0
VERTEX
  8
0
 62
7
 10
8.23214063
 20
5.71142188
  0
VERTEX
  8
0
 62
7
 10
8.24062500
 20
5.66662500
  0
VERTEX
  8
0
 62
7
 10
8.25304688
 20
5.62426563
  0
VERTEX
  8
0
 62
7
 10
8.26800000
 20
5.58500000
  0
VERTEX
  8
0
 62
7
 10
8.28371289
 20
5.55147852
  0
VERTEX
  8
0
 62
7
 10
8.30150000
 20
5.52026563
  0
VERTEX
  8
0
 62
7
 10
8.32120898
 20
5.49132617
  0
VERTEX
  8
0
 62
7
 10
8.34268750
 20
5.46462500
  0
VERTEX
  8
0
 62
7
 10
8.36578320
 20
5.44012695
  0
VERTEX
  8
0
 62
7
 10
8.39034375
 20
5.41779688
  0
VERTEX
  8
0
 62
7
 10
8.41621680
 20
5.39759961
  0
VERTEX
  8
0
 62
7
 10
8.44325000
 20
5.37950000
  0
VERTEX
  8
0
 62
7
 10
8.47129102
 20
5.36346289
  0
VERTEX
  8
0
 62
7
 10
8.50018750
 20
5.34945313
  0
VERTEX
  8
0
 62
7
 10
8.52978711
 20
5.33743555
  0
VERTEX
  8
0
 62
7
 10
8.55993750
 20
5.32737500
  0
VERTEX
  8
0
 62
7
 10
8.59048633
 20
5.31923633
  0
VERTEX
  8
0
 62
7
 10
8.62128125
 20
5.31298438
  0
VERTEX
  8
0
 62
7
 10
8.65216992
 20
5.30858398
  0
VERTEX
  8
0
 62
7
 10
8.68300000
 20
5.30600000
  0
VERTEX
  8
0
 62
7
 10
8.71300000
 20
5.30500000
  0
VERTEX
  8
0
 62
7
 10
8.74959375
 20
5.30629688
  0
VERTEX
  8
0
 62
7
 10
8.78600000
 20
5.31012500
  0
VERTEX
  8
0
 62
7
 10
8.82240625
 20
5.31639063
  0
VERTEX
  8
0
 62
7
 10
8.85900000
 20
5.32500000
  0
VERTEX
  8
0
 62
7
 10
8.89966382
 20
5.33818872
  0
VERTEX
  8
0
 62
7
 10
8.93835742
 20
5.35438477
  0
VERTEX
  8
0
 62
7
 10
8.97500903
 20
5.37340796
  0
VERTEX
  8
0
 62
7
 10
9.00954688
 20
5.39507813
  0
VERTEX
  8
0
 62
7
 10
9.04189917
 20
5.41921509
  0
VERTEX
  8
0
 62
7
 10
9.07199414
 20
5.44563867
  0
VERTEX
  8
0
 62
7
 10
9.09976001
 20
5.47416870
  0
VERTEX
  8
0
 62
7
 10
9.12512500
 20
5.50462500
  0
VERTEX
  8
0
 62
7
 10
9.14801733
 20
5.53682739
  0
VERTEX
  8
0
 62
7
 10
9.16836523
 20
5.57059570
  0
VERTEX
  8
0
 62
7
 10
9.18609692
 20
5.60574976
  0
VERTEX
  8
0
 62
7
 10
9.20114063
 20
5.64210938
  0
VERTEX
  8
0
 62
7
 10
9.21342456
 20
5.67949438
  0
VERTEX
  8
0
 62
7
 10
9.22287695
 20
5.71772461
  0
VERTEX
  8
0
 62
7
 10
9.22942603
 20
5.75661987
  0
VERTEX
  8
0
 62
7
 10
9.23300000
 20
5.79600000
  0
VERTEX
  8
0
 62
7
 10
9.23400000
 20
5.82200000
  0
VERTEX
  8
0
 62
7
 10
9.23112500
 20
5.87387500
  0
VERTEX
  8
0
 62
7
 10
9.22300000
 20
5.92500000
  0
VERTEX
  8
0
 62
7
 10
9.21404688
 20
5.96265039
  0
VERTEX
  8
0
 62
7
 10
9.20237500
 20
5.99839063
  0
VERTEX
  8
0
 62
7
 10
9.18826563
 20
6.03227930
  0
VERTEX
  8
0
 62
7
 10
9.17200000
 20
6.06437500
  0
VERTEX
  8
0
 62
7
 10
9.15385938
 20
6.09473633
  0
VERTEX
  8
0
 62
7
 10
9.13412500
 20
6.12342188
  0
VERTEX
  8
0
 62
7
 10
9.11307812
 20
6.15049023
  0
VERTEX
  8
0
 62
7
 10
9.09100000
 20
6.17600000
  0
VERTEX
  8
0
 62
7
 10
9.62400195
 20
6.23242188
  0
VERTEX
  8
0
 62
7
 10
10.16151563
 20
6.28162500
  0
VERTEX
  8
0
 62
7
 10
10.70317773
 20
6.32351563
  0
VERTEX
  8
0
 62
7
 10
11.24862500
 20
6.35800000
  0
VERTEX
  8
0
 62
7
 10
11.79749414
 20
6.38498438
  0
VERTEX
  8
0
 62
7
 10
12.34942188
 20
6.40437500
  0
VERTEX
  8
0
 62
7
 10
12.90404492
 20
6.41607813
  0
VERTEX
  8
0
 62
7
 10
13.46100000
 20
6.42000000
  0
VERTEX
  8
0
 62
7
 10
13.73885938
 20
6.41932813
  0
VERTEX
  8
0
 62
7
 10
14.01512500
 20
6.41687500
  0
VERTEX
  8
0
 62
7
 10
14.28857813
 20
6.41198438
  0
VERTEX
  8
0
 62
7
 10
14.55800000
 20
6.40400000
  0
VERTEX
  8
0
 62
7
 10
14.85391623
 20
6.39227631
  0
VERTEX
  8
0
 62
7
 10
15.14861499
 20
6.37810889
  0
VERTEX
  8
0
 62
7
 10
15.44211514
 20
6.36150323
  0
VERTEX
  8
0
 62
7
 10
15.73443555
 20
6.34246484
  0
VERTEX
  8
0
 62
7
 10
16.02559506
 20
6.32099921
  0
VERTEX
  8
0
 62
7
 10
16.31561255
 20
6.29711182
  0
VERTEX
  8
0
 62
7
 10
16.60450687
 20
6.27080817
  0
VERTEX
  8
0
 62
7
 10
16.89229688
 20
6.24209375
  0
VERTEX
  8
0
 62
7
 10
17.17900143
 20
6.21097406
  0
VERTEX
  8
0
 62
7
 10
17.46463940
 20
6.17745459
  0
VERTEX
  8
0
 62
7
 10
17.74922964
 20
6.14154083
  0
VERTEX
  8
0
 62
7
 10
18.03279102
 20
6.10323828
  0
VERTEX
  8
0
 62
7
 10
18.31534238
 20
6.06255243
  0
VERTEX
  8
0
 62
7
 10
18.59690259
 20
6.01948877
  0
VERTEX
  8
0
 62
7
 10
18.87749051
 20
5.97405280
  0
VERTEX
  8
0
 62
7
 10
19.15712500
 20
5.92625000
  0
VERTEX
  8
0
 62
7
 10
19.43582492
 20
5.87608588
  0
VERTEX
  8
0
 62
7
 10
19.71360913
 20
5.82356592
  0
VERTEX
  8
0
 62
7
 10
19.99049649
 20
5.76869562
  0
VERTEX
  8
0
 62
7
 10
20.26650586
 20
5.71148047
  0
VERTEX
  8
0
 62
7
 10
20.54165610
 20
5.65192596
  0
VERTEX
  8
0
 62
7
 10
20.81596606
 20
5.59003760
  0
VERTEX
  8
0
 62
7
 10
21.08945462
 20
5.52582086
  0
VERTEX
  8
0
 62
7
 10
21.36214063
 20
5.45928125
  0
VERTEX
  8
0
 62
7
 10
21.63404294
 20
5.39042426
  0
VERTEX
  8
0
 62
7
 10
21.90518042
 20
5.31925537
  0
VERTEX
  8
0
 62
7
 10
22.17557193
 20
5.24578009
  0
VERTEX
  8
0
 62
7
 10
22.44523633
 20
5.17000391
  0
VERTEX
  8
0
 62
7
 10
22.71419247
 20
5.09193231
  0
VERTEX
  8
0
 62
7
 10
22.98245923
 20
5.01157080
  0
VERTEX
  8
0
 62
7
 10
23.25005545
 20
4.92892487
  0
VERTEX
  8
0
 62
7
 10
23.51700000
 20
4.84400000
  0
VERTEX
  8
0
 62
7
 10
23.63400000
 20
4.80500000
  0
VERTEX
  8
0
 62
7
 10
23.63400000
 20
4.92900000
  0
VERTEX
  8
0
 62
7
 10
23.63400000
 20
15.53200000
  0
VERTEX
  8
0
 62
7
 10
23.26200000
 20
15.53200000
  0
VERTEX
  8
0
 62
7
 10
23.26200000
 20
15.79600000
  0
VERTEX
  8
0
 62
7
 10
22.86100000
 20
15.79600000
  0
VERTEX
  8
0
 62
7
 10
22.86100000
 20
16.05600000
  0
VERTEX
  8
0
 62
7
 10
22.86100000
 20
16.13300000
  0
VERTEX
  8
0
 62
7
 10
22.78600000
 20
16.14500000
  0
VERTEX
  8
0
 62
7
 10
22.32741797
 20
16.21854688
  0
VERTEX
  8
0
 62
7
 10
21.86253125
 20
16.28975000
  0
VERTEX
  8
0
 62
7
 10
21.39187891
 20
16.35832813
  0
VERTEX
  8
0
 62
7
 10
20.91600000
 20
16.42400000
  0
VERTEX
  8
0
 62
7
 10
20.43543359
 20
16.48648438
  0
VERTEX
  8
0
 62
7
 10
19.95071875
 20
16.54550000
  0
VERTEX
  8
0
 62
7
 10
19.46239453
 20
16.60076563
  0
VERTEX
  8
0
 62
7
 10
18.97100000
 20
16.65200000
  0
VERTEX
  8
0
 62
7
 10
19.03334375
 20
16.67996875
  0
VERTEX
  8
0
 62
7
 10
19.09400000
 20
16.71300000
  0
VERTEX
  8
0
 62
7
 10
19.15240625
 20
16.75128125
  0
VERTEX
  8
0
 62
7
 10
19.20800000
 20
16.79500000
  0
VERTEX
  8
0
 62
7
 10
19.25009375
 20
16.83409375
  0
VERTEX
  8
0
 62
7
 10
19.28825000
 20
16.87525000
  0
VERTEX
  8
0
 62
7
 10
19.32303125
 20
16.91678125
  0
VERTEX
  8
0
 62
7
 10
19.35500000
 20
16.95700000
  0
VERTEX
  8
0
 62
7
 10
19.38500000
 20
16.99500000
  0
VERTEX
  8
0
 62
7
 10
19.42000000
 20
17.04200000
  0
VERTEX
  8
0
 62
7
 10
19.44412500
 20
17.07550000
  0
VERTEX
  8
0
 62
7
 10
19.46600000
 20
17.10000000
  0
VERTEX
  8
0
 62
7
 10
19.48834570
 20
17.12047852
  0
VERTEX
  8
0
 62
7
 10
19.51182813
 20
17.13914063
  0
VERTEX
  8
0
 62
7
 10
19.53636523
 20
17.15595117
  0
VERTEX
  8
0
 62
7
 10
19.56187500
 20
17.17087500
  0
VERTEX
  8
0
 62
7
 10
19.58827539
 20
17.18387695
  0
VERTEX
  8
0
 62
7
 10
19.61548438
 20
17.19492188
  0
VERTEX
  8
0
 62
7
 10
19.64341992
 20
17.20397461
  0
VERTEX
  8
0
 62
7
 10
19.67200000
 20
17.21100000
  0
VERTEX
  8
0
 62
7
 10
19.69847656
 20
17.22075195
  0
VERTEX
  8
0
 62
7
 10
19.71918750
 20
17.23689063
  0
VERTEX
  8
0
 62
7
 10
19.73380469
 20
17.25774023
  0
VERTEX
  8
0
 62
7
 10
19.74200000
 20
17.28162500
  0
VERTEX
  8
0
 62
7
 10
19.74344531
 20
17.30686914
  0
VERTEX
  8
0
 62
7
 10
19.73781250
 20
17.33179688
  0
VERTEX
  8
0
 62
7
 10
19.72477344
 20
17.35473242
  0
VERTEX
  8
0
 62
7
 10
19.70400000
 20
17.37400000
  0
VERTEX
  8
0
 62
7
 10
19.78578125
 20
17.35126563
  0
VERTEX
  8
0
 62
7
 10
19.86025000
 20
17.32562500
  0
VERTEX
  8
0
 62
7
 10
19.93659375
 20
17.29342188
  0
VERTEX
  8
0
 62
7
 10
20.02400000
 20
17.25100000
  0
VERTEX
  8
0
 62
7
 10
20.04788867
 20
17.24289063
  0
VERTEX
  8
0
 62
7
 10
20.07054688
 20
17.24256250
  0
VERTEX
  8
0
 62
7
 10
20.09158789
 20
17.24889063
  0
VERTEX
  8
0
 62
7
 10
20.11062500
 20
17.26075000
  0
VERTEX
  8
0
 62
7
 10
20.12727148
 20
17.27701563
  0
VERTEX
  8
0
 62
7
 10
20.14114063
 20
17.29656250
  0
VERTEX
  8
0
 62
7
 10
20.15184570
 20
17.31826563
  0
VERTEX
  8
0
 62
7
 10
20.15900000
 20
17.34100000
  0
VERTEX
  8
0
 62
7
 10
20.16979688
 20
17.38814063
  0
VERTEX
  8
0
 62
7
 10
20.18087500
 20
17.44662500
  0
VERTEX
  8
0
 62
7
 10
20.18951563
 20
17.51579688
  0
VERTEX
  8
0
 62
7
 10
20.19300000
 20
17.59500000
  0
VERTEX
  8
0
 62
7
 10
20.19000000
 20
17.66700000
  0
VERTEX
  8
0
 62
7
 10
20.18332495
 20
17.72652344
  0
VERTEX
  8
0
 62
7
 10
20.17274023
 20
17.78529688
  0
VERTEX
  8
0
 62
7
 10
20.15834399
 20
17.84306250
  0
VERTEX
  8
0
 62
7
 10
20.14023438
 20
17.89956250
  0
VERTEX
  8
0
 62
7
 10
20.11850952
 20
17.95453906
  0
VERTEX
  8
0
 62
7
 10
20.09326758
 20
18.00773438
  0
VERTEX
  8
0
 62
7
 10
20.06460669
 20
18.05889063
  0
VERTEX
  8
0
 62
7
 10
20.03262500
 20
18.10775000
  0
VERTEX
  8
0
 62
7
 10
19.99742065
 20
18.15405469
  0
VERTEX
  8
0
 62
7
 10
19.95909180
 20
18.19754688
  0
VERTEX
  8
0
 62
7
 10
19.91773657
 20
18.23796875
  0
VERTEX
  8
0
 62
7
 10
19.87345313
 20
18.27506250
  0
VERTEX
  8
0
 62
7
 10
19.82633960
 20
18.30857031
  0
VERTEX
  8
0
 62
7
 10
19.77649414
 20
18.33823438
  0
VERTEX
  8
0
 62
7
 10
19.72401489
 20
18.36379688
  0
VERTEX
  8
0
 62
7
 10
19.66900000
 20
18.38500000
  0
VERTEX
  8
0
 62
7
 10
19.73948438
 20
18.40056250
  0
VERTEX
  8
0
 62
7
 10
19.80912500
 20
18.42100000
  0
VERTEX
  8
0
 62
7
 10
19.87670313
 20
18.44743750
  0
VERTEX
  8
0
 62
7
 10
19.94100000
 20
18.48100000
  0
VERTEX
  8
0
 62
7
 10
19.99376563
 20
18.51517383
  0
VERTEX
  8
0
 62
7
 10
20.04193750
 20
18.55264063
  0
VERTEX
  8
0
 62
7
 10
20.08570313
 20
18.59369336
  0
VERTEX
  8
0
 62
7
 10
20.12525000
 20
18.63862500
  0
VERTEX
  8
0
 62
7
 10
20.16076563
 20
18.68772852
  0
VERTEX
  8
0
 62
7
 10
20.19243750
 20
18.74129688
  0
VERTEX
  8
0
 62
7
 10
20.22045313
 20
18.79962305
  0
VERTEX
  8
0
 62
7
 10
20.24500000
 20
18.86300000
  0
VERTEX
  8
0
 62
7
 10
20.26300000
 20
18.87800000
  0
VERTEX
  8
0
 62
7
 10
20.42855664
 20
19.01566406
  0
VERTEX
  8
0
 62
7
 10
20.59670313
 20
19.15037500
  0
VERTEX
  8
0
 62
7
 10
20.76740430
 20
19.28208594
  0
VERTEX
  8
0
 62
7
 10
20.94062500
 20
19.41075000
  0
VERTEX
  8
0
 62
7
 10
21.11633008
 20
19.53632031
  0
VERTEX
  8
0
 62
7
 10
21.29448438
 20
19.65875000
  0
VERTEX
  8
0
 62
7
 10
21.47505273
 20
19.77799219
  0
VERTEX
  8
0
 62
7
 10
21.65800000
 20
19.89400000
  0
VERTEX
  8
0
 62
7
 10
21.82022070
 20
19.99247852
  0
VERTEX
  8
0
 62
7
 10
21.98432813
 20
20.08839063
  0
VERTEX
  8
0
 62
7
 10
22.15024023
 20
20.18170117
  0
VERTEX
  8
0
 62
7
 10
22.31787500
 20
20.27237500
  0
VERTEX
  8
0
 62
7
 10
22.48715039
 20
20.36037695
  0
VERTEX
  8
0
 62
7
 10
22.65798438
 20
20.44567188
  0
VERTEX
  8
0
 62
7
 10
22.83029492
 20
20.52822461
  0
VERTEX
  8
0
 62
7
 10
23.00400000
 20
20.60800000
  0
VERTEX
  8
0
 62
7
 10
23.31800000
 20
20.75000000
  0
VERTEX
  8
0
 62
7
 10
23.45600000
 20
20.81300000
  0
VERTEX
  8
0
 62
7
 10
22.37900000
 20
20.98000000
  0
VERTEX
  8
0
 62
7
 10
22.21000000
 20
20.90100000
  0
VERTEX
  8
0
 62
7
 10
21.96379688
 20
20.77203125
  0
VERTEX
  8
0
 62
7
 10
21.72162500
 20
20.63725000
  0
VERTEX
  8
0
 62
7
 10
21.48339063
 20
20.49684375
  0
VERTEX
  8
0
 62
7
 10
21.24900000
 20
20.35100000
  0
VERTEX
  8
0
 62
7
 10
20.99740625
 20
20.18484375
  0
VERTEX
  8
0
 62
7
 10
20.74975000
 20
20.01325000
  0
VERTEX
  8
0
 62
7
 10
20.50621875
 20
19.83603125
  0
VERTEX
  8
0
 62
7
 10
20.26700000
 20
19.65300000
  0
VERTEX
  8
0
 62
7
 10
20.20428125
 20
19.66539063
  0
VERTEX
  8
0
 62
7
 10
20.14100000
 20
19.67412500
  0
VERTEX
  8
0
 62
7
 10
20.07771875
 20
19.67929688
  0
VERTEX
  8
0
 62
7
 10
20.01500000
 20
19.68100000
  0
VERTEX
  8
0
 62
7
 10
19.96462500
 20
19.68012500
  0
VERTEX
  8
0
 62
7
 10
19.91500000
 20
19.67700000
  0
VERTEX
  8
0
 62
7
 10
19.86646655
 20
19.67149072
  0
VERTEX
  8
0
 62
7
 10
19.81913867
 20
19.66362891
  0
VERTEX
  8
0
 62
7
 10
19.77305005
 20
19.65347607
  0
VERTEX
  8
0
 62
7
 10
19.72823438
 20
19.64109375
  0
VERTEX
  8
0
 62
7
 10
19.68472534
 20
19.62654346
  0
VERTEX
  8
0
 62
7
 10
19.64255664
 20
19.60988672
  0
VERTEX
  8
0
 62
7
 10
19.60176196
 20
19.59118506
  0
VERTEX
  8
0
 62
7
 10
19.56237500
 20
19.57050000
  0
VERTEX
  8
0
 62
7
 10
19.52442944
 20
19.54789307
  0
VERTEX
  8
0
 62
7
 10
19.48795898
 20
19.52342578
  0
VERTEX
  8
0
 62
7
 10
19.45299731
 20
19.49715967
  0
VERTEX
  8
0
 62
7
 10
19.41957813
 20
19.46915625
  0
VERTEX
  8
0
 62
7
 10
19.38773511
 20
19.43947705
  0
VERTEX
  8
0
 62
7
 10
19.35750195
 20
19.40818359
  0
VERTEX
  8
0
 62
7
 10
19.32891235
 20
19.37533740
  0
VERTEX
  8
0
 62
7
 10
19.30200000
 20
19.34100000
  0
VERTEX
  8
0
 62
7
 10
19.27345508
 20
19.29899609
  0
VERTEX
  8
0
 62
7
 10
19.24707813
 20
19.25359375
  0
VERTEX
  8
0
 62
7
 10
19.22288086
 20
19.20533203
  0
VERTEX
  8
0
 62
7
 10
19.20087500
 20
19.15475000
  0
VERTEX
  8
0
 62
7
 10
19.18107227
 20
19.10238672
  0
VERTEX
  8
0
 62
7
 10
19.16348438
 20
19.04878125
  0
VERTEX
  8
0
 62
7
 10
19.14812305
 20
18.99447266
  0
VERTEX
  8
0
 62
7
 10
19.13500000
 20
18.94000000
  0
VERTEX
  8
0
 62
7
 10
19.11982227
 20
19.00316211
  0
VERTEX
  8
0
 62
7
 10
19.10189063
 20
19.06185938
  0
VERTEX
  8
0
 62
7
 10
19.07985742
 20
19.11678320
  0
VERTEX
  8
0
 62
7
 10
19.05237500
 20
19.16862500
  0
VERTEX
  8
0
 62
7
 10
19.01809570
 20
19.21807617
  0
VERTEX
  8
0
 62
7
 10
18.97567188
 20
19.26582813
  0
VERTEX
  8
0
 62
7
 10
18.92375586
 20
19.31257227
  0
VERTEX
  8
0
 62
7
 10
18.86100000
 20
19.35900000
  0
VERTEX
  8
0
 62
7
 10
18.80012500
 20
19.39312500
  0
VERTEX
  8
0
 62
7
 10
18.73700000
 20
19.42200000
  0
VERTEX
  8
0
 62
7
 10
18.65500000
 20
19.46000000
  0
VERTEX
  8
0
 62
7
 10
18.62059375
 20
19.48507813
  0
VERTEX
  8
0
 62
7
 10
18.58300000
 20
19.52262500
  0
VERTEX
  8
0
 62
7
 10
18.54840625
 20
19.56560938
  0
VERTEX
  8
0
 62
7
 10
18.52300000
 20
19.60700000
  0
VERTEX
  8
0
 62
7
 10
18.51136523
 20
19.62506250
  0
VERTEX
  8
0
 62
7
 10
18.49648438
 20
19.63937500
  0
VERTEX
  8
0
 62
7
 10
18.47914258
 20
19.64975000
  0
VERTEX
  8
0
 62
7
 10
18.46012500
 20
19.65600000
  0
VERTEX
  8
0
 62
7
 10
18.44021680
 20
19.65793750
  0
VERTEX
  8
0
 62
7
 10
18.42020313
 20
19.65537500
  0
VERTEX
  8
0
 62
7
 10
18.40086914
 20
19.64812500
  0
VERTEX
  8
0
 62
7
 10
18.38300000
 20
19.63600000
  0
VERTEX
  8
0
 62
7
 10
18.35282153
 20
19.60797339
  0
VERTEX
  8
0
 62
7
 10
18.32419727
 20
19.57730273
  0
VERTEX
  8
0
 62
7
 10
18.29718140
 20
19.54422681
  0
VERTEX
  8
0
 62
7
 10
18.27182813
 20
19.50898438
  0
VERTEX
  8
0
 62
7
 10
18.24819165
 20
19.47181421
  0
VERTEX
  8
0
 62
7
 10
18.22632617
 20
19.43295508
  0
VERTEX
  8
0
 62
7
 10
18.20628589
 20
19.39264575
  0
VERTEX
  8
0
 62
7
 10
18.18812500
 20
19.35112500
  0
VERTEX
  8
0
 62
7
 10
18.17189771
 20
19.30863159
  0
VERTEX
  8
0
 62
7
 10
18.15765820
 20
19.26540430
  0
VERTEX
  8
0
 62
7
 10
18.14546069
 20
19.22168188
  0
VERTEX
  8
0
 62
7
 10
18.13535938
 20
19.17770313
  0
VERTEX
  8
0
 62
7
 10
18.12740845
 20
19.13370679
  0
VERTEX
  8
0
 62
7
 10
18.12166211
 20
19.08993164
  0
VERTEX
  8
0
 62
7
 10
18.11817456
 20
19.04661646
  0
VERTEX
  8
0
 62
7
 10
18.11700000
 20
19.00400000
  0
VERTEX
  8
0
 62
7
 10
18.11900000
 20
18.94100000
  0
VERTEX
  8
0
 62
7
 10
18.12479688
 20
18.89035938
  0
VERTEX
  8
0
 62
7
 10
18.13312500
 20
18.84187500
  0
VERTEX
  8
0
 62
7
 10
18.14389063
 20
18.79545313
  0
VERTEX
  8
0
 62
7
 10
18.15700000
 20
18.75100000
  0
VERTEX
  8
0
 62
7
 10
18.13800000
 20
18.76800000
  0
VERTEX
  8
0
 62
7
 10
18.11521484
 20
18.78821289
  0
VERTEX
  8
0
 62
7
 10
18.09109375
 20
18.80745313
  0
VERTEX
  8
0
 62
7
 10
18.06561328
 20
18.82549805
  0
VERTEX
  8
0
 62
7
 10
18.03875000
 20
18.84212500
  0
VERTEX
  8
0
 62
7
 10
18.01048047
 20
18.85711133
  0
VERTEX
  8
0
 62
7
 10
17.98078125
 20
18.87023438
  0
VERTEX
  8
0
 62
7
 10
17.94962891
 20
18.88127148
  0
VERTEX
  8
0
 62
7
 10
17.91700000
 20
18.89000000
  0
VERTEX
  8
0
 62
7
 10
17.88575000
 20
18.89537500
  0
VERTEX
  8
0
 62
7
 10
17.85600000
 20
18.89700000
  0
VERTEX
  8
0
 62
7
 10
17.82509375
 20
18.89559375
  0
VERTEX
  8
0
 62
7
 10
17.79550000
 20
18.89175000
  0
VERTEX
  8
0
 62
7
 10
17.76740625
 20
18.88603125
  0
VERTEX
  8
0
 62
7
 10
17.74100000
 20
18.87900000
  0
VERTEX
  8
0
 62
7
 10
17.71025000
 20
18.86850000
  0
VERTEX
  8
0
 62
7
 10
17.68100000
 20
18.85500000
  0
VERTEX
  8
0
 62
7
 10
17.68462500
 20
18.88125000
  0
VERTEX
  8
0
 62
7
 10
17.68600000
 20
18.90900000
  0
VERTEX
  8
0
 62
7
 10
17.68500000
 20
18.91700000
  0
VERTEX
  8
0
 62
7
 10
17.68434180
 20
18.93608203
  0
VERTEX
  8
0
 62
7
 10
17.68292188
 20
18.95640625
  0
VERTEX
  8
0
 62
7
 10
17.68044727
 20
18.97771484
  0
VERTEX
  8
0
 62
7
 10
17.67662500
 20
18.99975000
  0
VERTEX
  8
0
 62
7
 10
17.67116211
 20
19.02225391
  0
VERTEX
  8
0
 62
7
 10
17.66376563
 20
19.04496875
  0
VERTEX
  8
0
 62
7
 10
17.65414258
 20
19.06763672
  0
VERTEX
  8
0
 62
7
 10
17.64200000
 20
19.09000000
  0
VERTEX
  8
0
 62
7
 10
17.62347266
 20
19.11810156
  0
VERTEX
  8
0
 62
7
 10
17.60328125
 20
19.14400000
  0
VERTEX
  8
0
 62
7
 10
17.58163672
 20
19.16783594
  0
VERTEX
  8
0
 62
7
 10
17.55875000
 20
19.18975000
  0
VERTEX
  8
0
 62
7
 10
17.53483203
 20
19.20988281
  0
VERTEX
  8
0
 62
7
 10
17.51009375
 20
19.22837500
  0
VERTEX
  8
0
 62
7
 10
17.48474609
 20
19.24536719
  0
VERTEX
  8
0
 62
7
 10
17.45900000
 20
19.26100000
  0
VERTEX
  8
0
 62
7
 10
17.43000000
 20
19.27700000
  0
VERTEX
  8
0
 62
7
 10
17.40312500
 20
19.29112500
  0
VERTEX
  8
0
 62
7
 10
17.38300000
 20
19.30600000
  0
VERTEX
  8
0
 62
7
 10
17.36600000
 20
19.34300000
  0
VERTEX
  8
0
 62
7
 10
17.35522656
 20
19.36982227
  0
VERTEX
  8
0
 62
7
 10
17.33981250
 20
19.39014063
  0
VERTEX
  8
0
 62
7
 10
17.32149219
 20
19.40485742
  0
VERTEX
  8
0
 62
7
 10
17.30200000
 20
19.41487500
  0
VERTEX
  8
0
 62
7
 10
17.28307031
 20
19.42109570
  0
VERTEX
  8
0
 62
7
 10
17.26643750
 20
19.42442188
  0
VERTEX
  8
0
 62
7
 10
17.25383594
 20
19.42575586
  0
VERTEX
  8
0
 62
7
 10
17.24700000
 20
19.42600000
  0
VERTEX
  8
0
 62
7
 10
17.23655859
 20
19.42550977
  0
VERTEX
  8
0
 62
7
 10
17.22253125
 20
19.42357813
  0
VERTEX
  8
0
 62
7
 10
17.20611328
 20
19.41951367
  0
VERTEX
  8
0
 62
7
 10
17.18850000
 20
19.41262500
  0
VERTEX
  8
0
 62
7
 10
17.17088672
 20
19.40222070
  0
VERTEX
  8
0
 62
7
 10
17.15446875
 20
19.38760938
  0
VERTEX
  8
0
 62
7
 10
17.14044141
 20
19.36809961
  0
VERTEX
  8
0
 62
7
 10
17.13000000
 20
19.34300000
  0
VERTEX
  8
0
 62
7
 10
17.12231250
 20
19.32121875
  0
VERTEX
  8
0
 62
7
 10
17.11125000
 20
19.30225000
  0
VERTEX
  8
0
 62
7
 10
17.09681250
 20
19.28590625
  0
VERTEX
  8
0
 62
7
 10
17.07900000
 20
19.27200000
  0
VERTEX
  8
0
 62
7
 10
17.06354688
 20
19.26385938
  0
VERTEX
  8
0
 62
7
 10
17.04762500
 20
19.25862500
  0
VERTEX
  8
0
 62
7
 10
17.02739063
 20
19.25582813
  0
VERTEX
  8
0
 62
7
 10
16.99900000
 20
19.25500000
  0
VERTEX
  8
0
 62
7
 10
16.96765625
 20
19.25596875
  0
VERTEX
  8
0
 62
7
 10
16.94400000
 20
19.25900000
  0
VERTEX
  8
0
 62
7
 10
16.92559375
 20
19.26428125
  0
VERTEX
  8
0
 62
7
 10
16.91000000
 20
19.27200000
  0
VERTEX
  8
0
 62
7
 10
16.89217188
 20
19.28590625
  0
VERTEX
  8
0
 62
7
 10
16.87762500
 20
19.30225000
  0
VERTEX
  8
0
 62
7
 10
16.86626563
 20
19.32121875
  0
VERTEX
  8
0
 62
7
 10
16.85800000
 20
19.34300000
  0
VERTEX
  8
0
 62
7
 10
16.84788867
 20
19.36809961
  0
VERTEX
  8
0
 62
7
 10
16.83410938
 20
19.38760938
  0
VERTEX
  8
0
 62
7
 10
16.81786914
 20
19.40222070
  0
VERTEX
  8
0
 62
7
 10
16.80037500
 20
19.41262500
  0
VERTEX
  8
0
 62
7
 10
16.78283398
 20
19.41951367
  0
VERTEX
  8
0
 62
7
 10
16.76645313
 20
19.42357813
  0
VERTEX
  8
0
 62
7
 10
16.75243945
 20
19.42550977
  0
VERTEX
  8
0
 62
7
 10
16.74200000
 20
19.42600000
  0
VERTEX
  8
0
 62
7
 10
16.73516406
 20
19.42575586
  0
VERTEX
  8
0
 62
7
 10
16.72256250
 20
19.42442188
  0
VERTEX
  8
0
 62
7
 10
16.70592969
 20
19.42109570
  0
VERTEX
  8
0
 62
7
 10
16.68700000
 20
19.41487500
  0
VERTEX
  8
0
 62
7
 10
16.66750781
 20
19.40485742
  0
VERTEX
  8
0
 62
7
 10
16.64918750
 20
19.39014063
  0
VERTEX
  8
0
 62
7
 10
16.63377344
 20
19.36982227
  0
VERTEX
  8
0
 62
7
 10
16.62300000
 20
19.34300000
  0
VERTEX
  8
0
 62
7
 10
16.60600000
 20
19.30600000
  0
VERTEX
  8
0
 62
7
 10
16.58550000
 20
19.29112500
  0
VERTEX
  8
0
 62
7
 10
16.55900000
 20
19.27700000
  0
VERTEX
  8
0
 62
7
 10
16.53000000
 20
19.26100000
  0
VERTEX
  8
0
 62
7
 10
16.50425391
 20
19.24536719
  0
VERTEX
  8
0
 62
7
 10
16.47890625
 20
19.22837500
  0
VERTEX
  8
0
 62
7
 10
16.45416797
 20
19.20988281
  0
VERTEX
  8
0
 62
7
 10
16.43025000
 20
19.18975000
  0
VERTEX
  8
0
 62
7
 10
16.40736328
 20
19.16783594
  0
VERTEX
  8
0
 62
7
 10
16.38571875
 20
19.14400000
  0
VERTEX
  8
0
 62
7
 10
16.36552734
 20
19.11810156
  0
VERTEX
  8
0
 62
7
 10
16.34700000
 20
19.09000000
  0
VERTEX
  8
0
 62
7
 10
16.32550000
 20
19.04496875
  0
VERTEX
  8
0
 62
7
 10
16.31225000
 20
18.99975000
  0
VERTEX
  8
0
 62
7
 10
16.30537500
 20
18.95640625
  0
VERTEX
  8
0
 62
7
 10
16.30300000
 20
18.91700000
  0
VERTEX
  8
0
 62
7
 10
16.30300000
 20
18.90900000
  0
VERTEX
  8
0
 62
7
 10
16.30437500
 20
18.88112500
  0
VERTEX
  8
0
 62
7
 10
16.30800000
 20
18.85400000
  0
VERTEX
  8
0
 62
7
 10
16.27962500
 20
18.86750000
  0
VERTEX
  8
0
 62
7
 10
16.24900000
 20
18.87800000
  0
VERTEX
  8
0
 62
7
 10
16.22359375
 20
18.88518750
  0
VERTEX
  8
0
 62
7
 10
16.19575000
 20
18.89125000
  0
VERTEX
  8
0
 62
7
 10
16.16603125
 20
18.89543750
  0
VERTEX
  8
0
 62
7
 10
16.13500000
 20
18.89700000
  0
VERTEX
  8
0
 62
7
 10
16.10425000
 20
18.89500000
  0
VERTEX
  8
0
 62
7
 10
16.07200000
 20
18.89000000
  0
VERTEX
  8
0
 62
7
 10
16.03945508
 20
18.88123242
  0
VERTEX
  8
0
 62
7
 10
16.00851563
 20
18.87010938
  0
VERTEX
  8
0
 62
7
 10
15.97909961
 20
18.85690039
  0
VERTEX
  8
0
 62
7
 10
15.95112500
 20
18.84187500
  0
VERTEX
  8
0
 62
7
 10
15.92450977
 20
18.82530273
  0
VERTEX
  8
0
 62
7
 10
15.89917188
 20
18.80745313
  0
VERTEX
  8
0
 62
7
 10
15.87502930
 20
18.78859570
  0
VERTEX
  8
0
 62
7
 10
15.85200000
 20
18.76900000
  0
VERTEX
  8
0
 62
7
 10
15.82900000
 20
18.74700000
  0
VERTEX
  8
0
 62
7
 10
15.80575000
 20
18.72587500
  0
VERTEX
  8
0
 62
7
 10
15.78400000
 20
18.71000000
  0
VERTEX
  8
0
 62
7
 10
15.74700000
 20
18.70500000
  0
VERTEX
  8
0
 62
7
 10
15.73152441
 20
18.70525366
  0
VERTEX
  8
0
 62
7
 10
15.71732031
 20
18.70356055
  0
VERTEX
  8
0
 62
7
 10
15.70434668
 20
18.70017700
  0
VERTEX
  8
0
 62
7
 10
15.69256250
 20
18.69535938
  0
VERTEX
  8
0
 62
7
 10
15.68192676
 20
18.68936401
  0
VERTEX
  8
0
 62
7
 10
15.67239844
 20
18.68244727
  0
VERTEX
  8
0
 62
7
 10
15.66393652
 20
18.67486548
  0
VERTEX
  8
0
 62
7
 10
15.65650000
 20
18.66687500
  0
VERTEX
  8
0
 62
7
 10
15.65004785
 20
18.65873218
  0
VERTEX
  8
0
 62
7
 10
15.64453906
 20
18.65069336
  0
VERTEX
  8
0
 62
7
 10
15.63993262
 20
18.64301489
  0
VERTEX
  8
0
 62
7
 10
15.63618750
 20
18.63595313
  0
VERTEX
  8
0
 62
7
 10
15.63326270
 20
18.62976440
  0
VERTEX
  8
0
 62
7
 10
15.63111719
 20
18.62470508
  0
VERTEX
  8
0
 62
7
 10
15.62970996
 20
18.62103149
  0
VERTEX
  8
0
 62
7
 10
15.62900000
 20
18.61900000
  0
VERTEX
  8
0
 62
7
 10
15.62487500
 20
18.59950000
  0
VERTEX
  8
0
 62
7
 10
15.62300000
 20
18.57700000
  0
VERTEX
  8
0
 62
7
 10
15.62503125
 20
18.55414063
  0
VERTEX
  8
0
 62
7
 10
15.63250000
 20
18.52912500
  0
VERTEX
  8
0
 62
7
 10
15.64746875
 20
18.50429688
  0
VERTEX
  8
0
 62
7
 10
15.67200000
 20
18.48200000
  0
VERTEX
  8
0
 62
7
 10
15.69079688
 20
18.46696875
  0
VERTEX
  8
0
 62
7
 10
15.70537500
 20
18.45025000
  0
VERTEX
  8
0
 62
7
 10
15.71601563
 20
18.43165625
  0
VERTEX
  8
0
 62
7
 10
15.72300000
 20
18.41100000
  0
VERTEX
  8
0
 62
7
 10
15.72700000
 20
18.38400000
  0
VERTEX
  8
0
 62
7
 10
15.72437500
 20
18.36412500
  0
VERTEX
  8
0
 62
7
 10
15.71500000
 20
18.33000000
  0
VERTEX
  8
0
 62
7
 10
15.70431250
 20
18.29978125
  0
VERTEX
  8
0
 62
7
 10
15.69400000
 20
18.27800000
  0
VERTEX
  8
0
 62
7
 10
15.68293750
 20
18.26221875
  0
VERTEX
  8
0
 62
7
 10
15.67000000
 20
18.25000000
  0
VERTEX
  8
0
 62
7
 10
15.65346875
 20
18.23818750
  0
VERTEX
  8
0
 62
7
 10
15.63525000
 20
18.22975000
  0
VERTEX
  8
0
 62
7
 10
15.61515625
 20
18.22468750
  0
VERTEX
  8
0
 62
7
 10
15.59300000
 20
18.22300000
  0
VERTEX
  8
0
 62
7
 10
15.58900000
 20
18.22300000
  0
VERTEX
  8
0
 62
7
 10
15.55973047
 20
18.22035742
  0
VERTEX
  8
0
 62
7
 10
15.53540625
 20
18.21198438
  0
VERTEX
  8
0
 62
7
 10
15.51562891
 20
18.19946289
  0
VERTEX
  8
0
 62
7
 10
15.50000000
 20
18.18437500
  0
VERTEX
  8
0
 62
7
 10
15.48812109
 20
18.16830273
  0
VERTEX
  8
0
 62
7
 10
15.47959375
 20
18.15282813
  0
VERTEX
  8
0
 62
7
 10
15.47401953
 20
18.13953320
  0
VERTEX
  8
0
 62
7
 10
15.47100000
 20
18.13000000
  0
VERTEX
  8
0
 62
7
 10
15.46737500
 20
18.11187500
  0
VERTEX
  8
0
 62
7
 10
15.46600000
 20
18.09300000
  0
VERTEX
  8
0
 62
7
 10
15.46613672
 20
18.08736133
  0
VERTEX
  8
0
 62
7
 10
15.46690625
 20
18.07845313
  0
VERTEX
  8
0
 62
7
 10
15.46884766
 20
18.06703711
  0
VERTEX
  8
0
 62
7
 10
15.47250000
 20
18.05387500
  0
VERTEX
  8
0
 62
7
 10
15.47840234
 20
18.03972852
  0
VERTEX
  8
0
 62
7
 10
15.48709375
 20
18.02535938
  0
VERTEX
  8
0
 62
7
 10
15.49911328
 20
18.01152930
  0
VERTEX
  8
0
 62
7
 10
15.51500000
 20
17.99900000
  0
VERTEX
  8
0
 62
7
 10
15.54600000
 20
17.97100000
  0
VERTEX
  8
0
 62
7
 10
15.55325000
 20
17.94675000
  0
VERTEX
  8
0
 62
7
 10
15.55900000
 20
17.91800000
  0
VERTEX
  8
0
 62
7
 10
15.56500000
 20
17.88500000
  0
VERTEX
  8
0
 62
7
 10
15.57168750
 20
17.85572266
  0
VERTEX
  8
0
 62
7
 10
15.57987500
 20
17.82646875
  0
VERTEX
  8
0
 62
7
 10
15.58975000
 20
17.79735547
  0
VERTEX
  8
0
 62
7
 10
15.60150000
 20
17.76850000
  0
VERTEX
  8
0
 62
7
 10
15.61531250
 20
17.74001953
  0
VERTEX
  8
0
 62
7
 10
15.63137500
 20
17.71203125
  0
VERTEX
  8
0
 62
7
 10
15.64987500
 20
17.68465234
  0
VERTEX
  8
0
 62
7
 10
15.67100000
 20
17.65800000
  0
VERTEX
  8
0
 62
7
 10
15.70725000
 20
17.62346875
  0
VERTEX
  8
0
 62
7
 10
15.74650000
 20
17.59700000
  0
VERTEX
  8
0
 62
7
 10
15.78575000
 20
17.57728125
  0
VERTEX
  8
0
 62
7
 10
15.82200000
 20
17.56300000
  0
VERTEX
  8
0
 62
7
 10
15.85300000
 20
17.55437500
  0
VERTEX
  8
0
 62
7
 10
15.88400000
 20
17.54800000
  0
VERTEX
  8
0
 62
7
 10
15.86225000
 20
17.52500000
  0
VERTEX
  8
0
 62
7
 10
15.84200000
 20
17.49900000
  0
VERTEX
  8
0
 62
7
 10
15.83166016
 20
17.48321289
  0
VERTEX
  8
0
 62
7
 10
15.82115625
 20
17.46589063
  0
VERTEX
  8
0
 62
7
 10
15.81088672
 20
17.44709180
  0
VERTEX
  8
0
 62
7
 10
15.80125000
 20
17.42687500
  0
VERTEX
  8
0
 62
7
 10
15.79264453
 20
17.40529883
  0
VERTEX
  8
0
 62
7
 10
15.78546875
 20
17.38242188
  0
VERTEX
  8
0
 62
7
 10
15.78012109
 20
17.35830273
  0
VERTEX
  8
0
 62
7
 10
15.77700000
 20
17.33300000
  0
VERTEX
  8
0
 62
7
 10
15.77500000
 20
17.29700000
  0
VERTEX
  8
0
 62
7
 10
15.77871875
 20
17.24070313
  0
VERTEX
  8
0
 62
7
 10
15.78900000
 20
17.18712500
  0
VERTEX
  8
0
 62
7
 10
15.80453125
 20
17.13598438
  0
VERTEX
  8
0
 62
7
 10
15.82400000
 20
17.08700000
  0
VERTEX
  8
0
 62
7
 10
15.83800000
 20
17.05600000
  0
VERTEX
  8
0
 62
7
 10
15.85112500
 20
17.02950000
  0
VERTEX
  8
0
 62
7
 10
15.85900000
 20
17.00600000
  0
VERTEX
  8
0
 62
7
 10
15.85200000
 20
16.96700000
  0
VERTEX
  8
0
 62
7
 10
15.84537500
 20
16.94600000
  0
VERTEX
  8
0
 62
7
 10
15.84400000
 20
16.92800000
  0
VERTEX
  8
0
 62
7
 10
15.84703906
 20
16.90253125
  0
VERTEX
  8
0
 62
7
 10
15.85556250
 20
16.87893750
  0
VERTEX
  8
0
 62
7
 10
15.86867969
 20
16.85768750
  0
VERTEX
  8
0
 62
7
 10
15.88550000
 20
16.83925000
  0
VERTEX
  8
0
 62
7
 10
15.90513281
 20
16.82409375
  0
VERTEX
  8
0
 62
7
 10
15.92668750
 20
16.81268750
  0
VERTEX
  8
0
 62
7
 10
15.94927344
 20
16.80550000
  0
VERTEX
  8
0
 62
7
 10
15.97200000
 20
16.80300000
  0
VERTEX
  8
0
 62
7
 10
15.98954688
 20
16.80450000
  0
VERTEX
  8
0
 62
7
 10
16.00737500
 20
16.80900000
  0
VERTEX
  8
0
 62
7
 10
16.02501563
 20
16.81650000
  0
VERTEX
  8
0
 62
7
 10
16.04200000
 20
16.82700000
  0
VERTEX
  8
0
 62
7
 10
16.05962500
 20
16.83939063
  0
VERTEX
  8
0
 62
7
 10
16.07800000
 20
16.84812500
  0
VERTEX
  8
0
 62
7
 10
16.09712500
 20
16.85329688
  0
VERTEX
  8
0
 62
7
 10
16.11700000
 20
16.85500000
  0
VERTEX
  8
0
 62
7
 10
16.12400000
 20
16.85400000
  0
VERTEX
  8
0
 62
7
 10
16.14203125
 20
16.85223438
  0
VERTEX
  8
0
 62
7
 10
16.15800000
 20
16.84737500
  0
VERTEX
  8
0
 62
7
 10
16.17546875
 20
16.83782813
  0
VERTEX
  8
0
 62
7
 10
16.19800000
 20
16.82200000
  0
VERTEX
  8
0
 62
7
 10
16.24200000
 20
16.78600000
  0
VERTEX
  8
0
 62
7
 10
15.70800000
 20
16.78200000
  0
SEQEND
  0
POLYLINE
  8
0
 62
7
 66
1
 70
1
  0
VERTEX
  8
0
 62
7
 10
7.40300000
 20
5.46200000
  0
VERTEX
  8
0
 62
7
 10
7.49534375
 20
5.57515625
  0
VERTEX
  8
0
 62
7
 10
7.59500000
 20
5.68175000
  0
VERTEX
  8
0
 62
7
 10
7.70140625
 20
5.78121875
  0
VERTEX
  8
0
 62
7
 10
7.81400000
 20
5.87300000
  0
VERTEX
  8
0
 62
7
 10
7.86134180
 20
5.90945508
  0
VERTEX
  8
0
 62
7
 10
7.90904688
 20
5.94564063
  0
VERTEX
  8
0
 62
7
 10
7.95738477
 20
5.98091211
  0
VERTEX
  8
0
 62
7
 10
8.00662500
 20
6.01462500
  0
VERTEX
  8
0
 62
7
 10
8.05703711
 20
6.04613477
  0
VERTEX
  8
0
 62
7
 10
8.10889063
 20
6.07479688
  0
VERTEX
  8
0
 62
7
 10
8.16245508
 20
6.09996680
  0
VERTEX
  8
0
 62
7
 10
8.21800000
 20
6.12100000
  0
VERTEX
  8
0
 62
7
 10
8.25660400
 20
6.13329663
  0
VERTEX
  8
0
 62
7
 10
8.29583203
 20
6.14456055
  0
VERTEX
  8
0
 62
7
 10
8.33555811
 20
6.15460278
  0
VERTEX
  8
0
 62
7
 10
8.37565625
 20
6.16323438
  0
VERTEX
  8
0
 62
7
 10
8.41600049
 20
6.17026636
  0
VERTEX
  8
0
 62
7
 10
8.45646484
 20
6.17550977
  0
VERTEX
  8
0
 62
7
 10
8.49692334
 20
6.17877563
  0
VERTEX
  8
0
 62
7
 10
8.53725000
 20
6.17987500
  0
VERTEX
  8
0
 62
7
 10
8.57731885
 20
6.17861890
  0
VERTEX
  8
0
 62
7
 10
8.61700391
 20
6.17481836
  0
VERTEX
  8
0
 62
7
 10
8.65617920
 20
6.16828442
  0
VERTEX
  8
0
 62
7
 10
8.69471875
 20
6.15882813
  0
VERTEX
  8
0
 62
7
 10
8.73249658
 20
6.14626050
  0
VERTEX
  8
0
 62
7
 10
8.76938672
 20
6.13039258
  0
VERTEX
  8
0
 62
7
 10
8.80526318
 20
6.11103540
  0
VERTEX
  8
0
 62
7
 10
8.84000000
 20
6.08800000
  0
VERTEX
  8
0
 62
7
 10
8.86868359
 20
6.06544727
  0
VERTEX
  8
0
 62
7
 10
8.89528125
 20
6.04201563
  0
VERTEX
  8
0
 62
7
 10
8.91948828
 20
6.01766992
  0
VERTEX
  8
0
 62
7
 10
8.94100000
 20
5.99237500
  0
VERTEX
  8
0
 62
7
 10
8.95951172
 20
5.96609570
  0
VERTEX
  8
0
 62
7
 10
8.97471875
 20
5.93879688
  0
VERTEX
  8
0
 62
7
 10
8.98631641
 20
5.91044336
  0
VERTEX
  8
0
 62
7
 10
8.99400000
 20
5.88100000
  0
VERTEX
  8
0
 62
7
 10
8.99875000
 20
5.84500000
  0
VERTEX
  8
0
 62
7
 10
8.99900000
 20
5.80900000
  0
VERTEX
  8
0
 62
7
 10
8.99339453
 20
5.76477148
  0
VERTEX
  8
0
 62
7
 10
8.98134375
 20
5.72254688
  0
VERTEX
  8
0
 62
7
 10
8.96324609
 20
5.68301758
  0
VERTEX
  8
0
 62
7
 10
8.93950000
 20
5.64687500
  0
VERTEX
  8
0
 62
7
 10
8.91050391
 20
5.61481055
  0
VERTEX
  8
0
 62
7
 10
8.87665625
 20
5.58751563
  0
VERTEX
  8
0
 62
7
 10
8.83835547
 20
5.56568164
  0
VERTEX
  8
0
 62
7
 10
8.79600000
 20
5.55000000
  0
VERTEX
  8
0
 62
7
 10
8.77095313
 20
5.54434375
  0
VERTEX
  8
0
 62
7
 10
8.74562500
 20
5.54075000
  0
VERTEX
  8
0
 62
7
 10
8.72048438
 20
5.53903125
  0
VERTEX
  8
0
 62
7
 10
8.69600000
 20
5.53900000
  0
VERTEX
  8
0
 62
7
 10
8.66464258
 20
5.54249609
  0
VERTEX
  8
0
 62
7
 10
8.63451563
 20
5.54915625
  0
VERTEX
  8
0
 62
7
 10
8.60591211
 20
5.55886328
  0
VERTEX
  8
0
 62
7
 10
8.57912500
 20
5.57150000
  0
VERTEX
  8
0
 62
7
 10
8.55444727
 20
5.58694922
  0
VERTEX
  8
0
 62
7
 10
8.53217188
 20
5.60509375
  0
VERTEX
  8
0
 62
7
 10
8.51259180
 20
5.62581641
  0
VERTEX
  8
0
 62
7
 10
8.49600000
 20
5.64900000
  0
VERTEX
  8
0
 62
7
 10
8.48382227
 20
5.67023828
  0
VERTEX
  8
0
 62
7
 10
8.47432813
 20
5.69253125
  0
VERTEX
  8
0
 62
7
 10
8.46757617
 20
5.71562109
  0
VERTEX
  8
0
 62
7
 10
8.46362500
 20
5.73925000
  0
VERTEX
  8
0
 62
7
 10
8.46253320
 20
5.76316016
  0
VERTEX
  8
0
 62
7
 10
8.46435938
 20
5.78709375
  0
VERTEX
  8
0
 62
7
 10
8.46916211
 20
5.81079297
  0
VERTEX
  8
0
 62
7
 10
8.47700000
 20
5.83400000
  0
VERTEX
  8
0
 62
7
 10
8.48592773
 20
5.85366797
  0
VERTEX
  8
0
 62
7
 10
8.49685938
 20
5.87209375
  0
VERTEX
  8
0
 62
7
 10
8.50964258
 20
5.88916016
  0
VERTEX
  8
0
 62
7
 10
8.52412500
 20
5.90475000
  0
VERTEX
  8
0
 62
7
 10
8.54015430
 20
5.91874609
  0
VERTEX
  8
0
 62
7
 10
8.55757813
 20
5.93103125
  0
VERTEX
  8
0
 62
7
 10
8.57624414
 20
5.94148828
  0
VERTEX
  8
0
 62
7
 10
8.59600000
 20
5.95000000
  0
VERTEX
  8
0
 62
7
 10
8.57499219
 20
5.95806641
  0
VERTEX
  8
0
 62
7
 10
8.55337500
 20
5.96353125
  0
VERTEX
  8
0
 62
7
 10
8.53138281
 20
5.96641797
  0
VERTEX
  8
0
 62
7
 10
8.50925000
 20
5.96675000
  0
VERTEX
  8
0
 62
7
 10
8.48721094
 20
5.96455078
  0
VERTEX
  8
0
 62
7
 10
8.46550000
 20
5.95984375
  0
VERTEX
  8
0
 62
7
 10
8.44435156
 20
5.95265234
  0
VERTEX
  8
0
 62
7
 10
8.42400000
 20
5.94300000
  0
VERTEX
  8
0
 62
7
 10
8.39606250
 20
5.92417188
  0
VERTEX
  8
0
 62
7
 10
8.37225000
 20
5.90112500
  0
VERTEX
  8
0
 62
7
 10
8.35256250
 20
5.87451563
  0
VERTEX
  8
0
 62
7
 10
8.33700000
 20
5.84500000
  0
VERTEX
  8
0
 62
7
 10
8.32718359
 20
5.81728516
  0
VERTEX
  8
0
 62
7
 10
8.32146875
 20
5.78903125
  0
VERTEX
  8
0
 62
7
 10
8.31945703
 20
5.76044922
  0
VERTEX
  8
0
 62
7
 10
8.32075000
 20
5.73175000
  0
VERTEX
  8
0
 62
7
 10
8.32494922
 20
5.70314453
  0
VERTEX
  8
0
 62
7
 10
8.33165625
 20
5.67484375
  0
VERTEX
  8
0
 62
7
 10
8.34047266
 20
5.64705859
  0
VERTEX
  8
0
 62
7
 10
8.35100000
 20
5.62000000
  0
VERTEX
  8
0
 62
7
 10
8.36348584
 20
5.59350122
  0
VERTEX
  8
0
 62
7
 10
8.37762109
 20
5.56874414
  0
VERTEX
  8
0
 62
7
 10
8.39329736
 20
5.54571265
  0
VERTEX
  8
0
 62
7
 10
8.41040625
 20
5.52439063
  0
VERTEX
  8
0
 62
7
 10
8.42883936
 20
5.50476196
  0
VERTEX
  8
0
 62
7
 10
8.44848828
 20
5.48681055
  0
VERTEX
  8
0
 62
7
 10
8.46924463
 20
5.47052026
  0
VERTEX
  8
0
 62
7
 10
8.49100000
 20
5.45587500
  0
VERTEX
  8
0
 62
7
 10
8.51364600
 20
5.44285864
  0
VERTEX
  8
0
 62
7
 10
8.53707422
 20
5.43145508
  0
VERTEX
  8
0
 62
7
 10
8.56117627
 20
5.42164819
  0
VERTEX
  8
0
 62
7
 10
8.58584375
 20
5.41342188
  0
VERTEX
  8
0
 62
7
 10
8.61096826
 20
5.40676001
  0
VERTEX
  8
0
 62
7
 10
8.63644141
 20
5.40164648
  0
VERTEX
  8
0
 62
7
 10
8.66215479
 20
5.39806519
  0
VERTEX
  8
0
 62
7
 10
8.68800000
 20
5.39600000
  0
VERTEX
  8
0
 62
7
 10
8.72475000
 20
5.39526563
  0
VERTEX
  8
0
 62
7
 10
8.76150000
 20
5.39762500
  0
VERTEX
  8
0
 62
7
 10
8.79825000
 20
5.40317188
  0
VERTEX
  8
0
 62
7
 10
8.83500000
 20
5.41200000
  0
VERTEX
  8
0
 62
7
 10
8.86835278
 20
5.42267480
  0
VERTEX
  8
0
 62
7
 10
8.90011914
 20
5.43585156
  0
VERTEX
  8
0
 62
7
 10
8.93023608
 20
5.45138379
  0
VERTEX
  8
0
 62
7
 10
8.95864063
 20
5.46912500
  0
VERTEX
  8
0
 62
7
 10
8.98526978
 20
5.48892871
  0
VERTEX
  8
0
 62
7
 10
9.01006055
 20
5.51064844
  0
VERTEX
  8
0
 62
7
 10
9.03294995
 20
5.53413770
  0
VERTEX
  8
0
 62
7
 10
9.05387500
 20
5.55925000
  0
VERTEX
  8
0
 62
7
 10
9.07277271
 20
5.58583887
  0
VERTEX
  8
0
 62
7
 10
9.08958008
 20
5.61375781
  0
VERTEX
  8
0
 62
7
 10
9.10423413
 20
5.64286035
  0
VERTEX
  8
0
 62
7
 10
9.11667188
 20
5.67300000
  0
VERTEX
  8
0
 62
7
 10
9.12683032
 20
5.70403027
  0
VERTEX
  8
0
 62
7
 10
9.13464648
 20
5.73580469
  0
VERTEX
  8
0
 62
7
 10
9.14005737
 20
5.76817676
  0
VERTEX
  8
0
 62
7
 10
9.14300000
 20
5.80100000
  0
VERTEX
  8
0
 62
7
 10
9.14371875
 20
5.82742188
  0
VERTEX
  8
0
 62
7
 10
9.14275000
 20
5.85412500
  0
VERTEX
  8
0
 62
7
 10
9.13990625
 20
5.88101563
  0
VERTEX
  8
0
 62
7
 10
9.13500000
 20
5.90800000
  0
VERTEX
  8
0
 62
7
 10
9.12253125
 20
5.95582617
  0
VERTEX
  8
0
 62
7
 10
9.10443750
 20
6.00035938
  0
VERTEX
  8
0
 62
7
 10
9.08156250
 20
6.04168164
  0
VERTEX
  8
0
 62
7
 10
9.05475000
 20
6.07987500
  0
VERTEX
  8
0
 62
7
 10
9.02484375
 20
6.11502148
  0
VERTEX
  8
0
 62
7
 10
8.99268750
 20
6.14720313
  0
VERTEX
  8
0
 62
7
 10
8.95912500
 20
6.17650195
  0
VERTEX
  8
0
 62
7
 10
8.92500000
 20
6.20300000
  0
VERTEX
  8
0
 62
7
 10
8.88302441
 20
6.23088574
  0
VERTEX
  8
0
 62
7
 10
8.83969531
 20
6.25466406
  0
VERTEX
  8
0
 62
7
 10
8.79515918
 20
6.27451660
  0
VERTEX
  8
0
 62
7
 10
8.74956250
 20
6.29062500
  0
VERTEX
  8
0
 62
7
 10
8.70305176
 20
6.30317090
  0
VERTEX
  8
0
 62
7
 10
8.65577344
 20
6.31233594
  0
VERTEX
  8
0
 62
7
 10
8.60787402
 20
6.31830176
  0
VERTEX
  8
0
 62
7
 10
8.55950000
 20
6.32125000
  0
VERTEX
  8
0
 62
7
 10
8.51079785
 20
6.32136230
  0
VERTEX
  8
0
 62
7
 10
8.46191406
 20
6.31882031
  0
VERTEX
  8
0
 62
7
 10
8.41299512
 20
6.31380566
  0
VERTEX
  8
0
 62
7
 10
8.36418750
 20
6.30650000
  0
VERTEX
  8
0
 62
7
 10
8.31563770
 20
6.29708496
  0
VERTEX
  8
0
 62
7
 10
8.26749219
 20
6.28574219
  0
VERTEX
  8
0
 62
7
 10
8.21989746
 20
6.27265332
  0
VERTEX
  8
0
 62
7
 10
8.17300000
 20
6.25800000
  0
VERTEX
  8
0
 62
7
 10
8.11150586
 20
6.23470898
  0
VERTEX
  8
0
 62
7
 10
8.05210938
 20
6.20723438
  0
VERTEX
  8
0
 62
7
 10
7.99456445
 20
6.17617383
  0
VERTEX
  8
0
 62
7
 10
7.93862500
 20
6.14212500
  0
VERTEX
  8
0
 62
7
 10
7.88404492
 20
6.10568555
  0
VERTEX
  8
0
 62
7
 10
7.83057813
 20
6.06745313
  0
VERTEX
  8
0
 62
7
 10
7.77797852
 20
6.02802539
  0
VERTEX
  8
0
 62
7
 10
7.72600000
 20
5.98800000
  0
VERTEX
  8
0
 62
7
 10
7.60490625
 20
5.88810938
  0
VERTEX
  8
0
 62
7
 10
7.49075000
 20
5.78062500
  0
VERTEX
  8
0
 62
7
 10
7.38371875
 20
5.66582813
  0
VERTEX
  8
0
 62
7
 10
7.28400000
 20
5.54400000
  0
VERTEX
  8
0
 62
7
 10
7.40300000
 20
5.46200000
  0
SEQEND
  0
POLYLINE
  8
0
 62
7
 66
1
 70
1
  0
VERTEX
  8
0
 62
7
 10
16.99867045
 20
19.16023276
  0
VERTEX
  8
0
 62
7
 10
16.95991396
 20
19.16130765
  0
VERTEX
  8
0
 62
7
 10
16.92434710
 20
19.16576078
  0
VERTEX
  8
0
 62
7
 10
16.89090666
 20
19.17543481
  0
VERTEX
  8
0
 62
7
 10
16.85852942
 20
19.19217241
  0
VERTEX
  8
0
 62
7
 10
16.84163675
 20
19.20360114
  0
VERTEX
  8
0
 62
7
 10
16.82621547
 20
19.21634469
  0
VERTEX
  8
0
 62
7
 10
16.81229409
 20
19.23033589
  0
VERTEX
  8
0
 62
7
 10
16.79990106
 20
19.24550754
  0
VERTEX
  8
0
 62
7
 10
16.78906488
 20
19.26179248
  0
VERTEX
  8
0
 62
7
 10
16.77981401
 20
19.27912352
  0
VERTEX
  8
0
 62
7
 10
16.77217695
 20
19.29743348
  0
VERTEX
  8
0
 62
7
 10
16.76618216
 20
19.31665517
  0
VERTEX
  8
0
 62
7
 10
16.76199419
 20
19.32341164
  0
VERTEX
  8
0
 62
7
 10
16.75546147
 20
19.32786476
  0
VERTEX
  8
0
 62
7
 10
16.74742887
 20
19.33024488
  0
VERTEX
  8
0
 62
7
 10
16.73874125
 20
19.33078233
  0
VERTEX
  8
0
 62
7
 10
16.73024349
 20
19.32970744
  0
VERTEX
  8
0
 62
7
 10
16.72278046
 20
19.32725054
  0
VERTEX
  8
0
 62
7
 10
16.71719704
 20
19.32364197
  0
VERTEX
  8
0
 62
7
 10
16.71433808
 20
19.31911207
  0
VERTEX
  8
0
 62
7
 10
16.70622479
 20
19.29625781
  0
VERTEX
  8
0
 62
7
 10
16.69499781
 20
19.27263578
  0
VERTEX
  8
0
 62
7
 10
16.68392272
 20
19.25300620
  0
VERTEX
  8
0
 62
7
 10
16.67626509
 20
19.24212931
  0
VERTEX
  8
0
 62
7
 10
16.65112780
 20
19.22132247
  0
VERTEX
  8
0
 62
7
 10
16.62705372
 20
19.20589009
  0
VERTEX
  8
0
 62
7
 10
16.60267586
 20
19.19260749
  0
VERTEX
  8
0
 62
7
 10
16.57662725
 20
19.17825000
  0
VERTEX
  8
0
 62
7
 10
16.53283318
 20
19.15064830
  0
VERTEX
  8
0
 62
7
 10
16.49298817
 20
19.11897737
  0
VERTEX
  8
0
 62
7
 10
16.45769977
 20
19.08254620
  0
VERTEX
  8
0
 62
7
 10
16.42757552
 20
19.04066379
  0
VERTEX
  8
0
 62
7
 10
16.41343738
 20
19.01116824
  0
VERTEX
  8
0
 62
7
 10
16.40438745
 20
18.97975323
  0
VERTEX
  8
0
 62
7
 10
16.39943847
 20
18.94726334
  0
VERTEX
  8
0
 62
7
 10
16.39760317
 20
18.91454310
  0
VERTEX
  8
0
 62
7
 10
16.39819806
 20
18.89108422
  0
VERTEX
  8
0
 62
7
 10
16.40099531
 20
18.86799003
  0
VERTEX
  8
0
 62
7
 10
16.40569115
 20
18.84524135
  0
VERTEX
  8
0
 62
7
 10
16.41198180
 20
18.82281897
  0
VERTEX
  8
0
 62
7
 10
16.41956349
 20
18.80070370
  0
VERTEX
  8
0
 62
7
 10
16.42813244
 20
18.77887635
  0
VERTEX
  8
0
 62
7
 10
16.43738489
 20
18.75731772
  0
VERTEX
  8
0
 62
7
 10
16.44701705
 20
18.73600862
  0
VERTEX
  8
0
 62
7
 10
16.46109349
 20
18.70838133
  0
VERTEX
  8
0
 62
7
 10
16.47700207
 20
18.68190571
  0
VERTEX
  8
0
 62
7
 10
16.49444850
 20
18.65642821
  0
VERTEX
  8
0
 62
7
 10
16.51313850
 20
18.63179526
  0
VERTEX
  8
0
 62
7
 10
16.53277780
 20
18.60785331
  0
VERTEX
  8
0
 62
7
 10
16.55307211
 20
18.58444881
  0
VERTEX
  8
0
 62
7
 10
16.57372716
 20
18.56142821
  0
VERTEX
  8
0
 62
7
 10
16.59444865
 20
18.53863793
  0
VERTEX
  8
0
 62
7
 10
16.64696356
 20
18.48197575
  0
VERTEX
  8
0
 62
7
 10
16.70107329
 20
18.42807759
  0
VERTEX
  8
0
 62
7
 10
16.75837264
 20
18.37786476
  0
VERTEX
  8
0
 62
7
 10
16.82045643
 20
18.33225862
  0
VERTEX
  8
0
 62
7
 10
16.84013844
 20
18.33951414
  0
VERTEX
  8
0
 62
7
 10
16.86247848
 20
18.34607866
  0
VERTEX
  8
0
 62
7
 10
16.88527418
 20
18.35126118
  0
VERTEX
  8
0
 62
7
 10
16.90632318
 20
18.35437069
  0
VERTEX
  8
0
 62
7
 10
16.94115592
 20
18.39450000
  0
VERTEX
  8
0
 62
7
 10
16.94329183
 20
18.40483944
  0
VERTEX
  8
0
 62
7
 10
16.94442149
 20
18.42715625
  0
VERTEX
  8
0
 62
7
 10
16.94482969
 20
18.45853287
  0
VERTEX
  8
0
 62
7
 10
16.94480121
 20
18.49605172
  0
VERTEX
  8
0
 62
7
 10
16.94462084
 20
18.53679526
  0
VERTEX
  8
0
 62
7
 10
16.94457338
 20
18.57784591
  0
VERTEX
  8
0
 62
7
 10
16.94494360
 20
18.61628610
  0
VERTEX
  8
0
 62
7
 10
16.94601630
 20
18.64919828
  0
VERTEX
  8
0
 62
7
 10
16.94836264
 20
18.69393747
  0
VERTEX
  8
0
 62
7
 10
16.95020585
 20
18.73900296
  0
VERTEX
  8
0
 62
7
 10
16.95195413
 20
18.78426041
  0
VERTEX
  8
0
 62
7
 10
16.95401568
 20
18.82957543
  0
VERTEX
  8
0
 62
7
 10
16.95679870
 20
18.87481368
  0
VERTEX
  8
0
 62
7
 10
16.96071137
 20
18.91984079
  0
VERTEX
  8
0
 62
7
 10
16.96616189
 20
18.96452239
  0
VERTEX
  8
0
 62
7
 10
16.97355847
 20
19.00872414
  0
VERTEX
  8
0
 62
7
 10
17.01406166
 20
19.00872414
  0
VERTEX
  8
0
 62
7
 10
17.02145823
 20
18.96452239
  0
VERTEX
  8
0
 62
7
 10
17.02690876
 20
18.91984079
  0
VERTEX
  8
0
 62
7
 10
17.03082143
 20
18.87481368
  0
VERTEX
  8
0
 62
7
 10
17.03360444
 20
18.82957543
  0
VERTEX
  8
0
 62
7
 10
17.03566599
 20
18.78426041
  0
VERTEX
  8
0
 62
7
 10
17.03741427
 20
18.73900296
  0
VERTEX
  8
0
 62
7
 10
17.03925749
 20
18.69393747
  0
VERTEX
  8
0
 62
7
 10
17.04160382
 20
18.64919828
  0
VERTEX
  8
0
 62
7
 10
17.04267652
 20
18.61628610
  0
VERTEX
  8
0
 62
7
 10
17.04304675
 20
18.57784591
  0
VERTEX
  8
0
 62
7
 10
17.04299928
 20
18.53679526
  0
VERTEX
  8
0
 62
7
 10
17.04281892
 20
18.49605172
  0
VERTEX
  8
0
 62
7
 10
17.04279044
 20
18.45853287
  0
VERTEX
  8
0
 62
7
 10
17.04319864
 20
18.42715625
  0
VERTEX
  8
0
 62
7
 10
17.04432830
 20
18.40483944
  0
VERTEX
  8
0
 62
7
 10
17.04646421
 20
18.39450000
  0
VERTEX
  8
0
 62
7
 10
17.08129695
 20
18.35437069
  0
VERTEX
  8
0
 62
7
 10
17.10234594
 20
18.35126118
  0
VERTEX
  8
0
 62
7
 10
17.12514164
 20
18.34607866
  0
VERTEX
  8
0
 62
7
 10
17.14748168
 20
18.33951414
  0
VERTEX
  8
0
 62
7
 10
17.16716370
 20
18.33225862
  0
VERTEX
  8
0
 62
7
 10
17.22924749
 20
18.37786476
  0
VERTEX
  8
0
 62
7
 10
17.28654684
 20
18.42807759
  0
VERTEX
  8
0
 62
7
 10
17.34065656
 20
18.48197575
  0
VERTEX
  8
0
 62
7
 10
17.39317148
 20
18.53863793
  0
VERTEX
  8
0
 62
7
 10
17.41389297
 20
18.56142821
  0
VERTEX
  8
0
 62
7
 10
17.43454801
 20
18.58444881
  0
VERTEX
  8
0
 62
7
 10
17.45484232
 20
18.60785331
  0
VERTEX
  8
0
 62
7
 10
17.47448162
 20
18.63179526
  0
VERTEX
  8
0
 62
7
 10
17.49317163
 20
18.65642821
  0
VERTEX
  8
0
 62
7
 10
17.51061806
 20
18.68190571
  0
VERTEX
  8
0
 62
7
 10
17.52652663
 20
18.70838133
  0
VERTEX
  8
0
 62
7
 10
17.54060307
 20
18.73600862
  0
VERTEX
  8
0
 62
7
 10
17.55023524
 20
18.75731772
  0
VERTEX
  8
0
 62
7
 10
17.55948768
 20
18.77887635
  0
VERTEX
  8
0
 62
7
 10
17.56805664
 20
18.80070370
  0
VERTEX
  8
0
 62
7
 10
17.57563833
 20
18.82281897
  0
VERTEX
  8
0
 62
7
 10
17.58192898
 20
18.84524135
  0
VERTEX
  8
0
 62
7
 10
17.58662482
 20
18.86799003
  0
VERTEX
  8
0
 62
7
 10
17.58942207
 20
18.89108422
  0
VERTEX
  8
0
 62
7
 10
17.59001696
 20
18.91454310
  0
VERTEX
  8
0
 62
7
 10
17.58818166
 20
18.94726334
  0
VERTEX
  8
0
 62
7
 10
17.58323268
 20
18.97975323
  0
VERTEX
  8
0
 62
7
 10
17.57418275
 20
19.01116824
  0
VERTEX
  8
0
 62
7
 10
17.56004460
 20
19.04066379
  0
VERTEX
  8
0
 62
7
 10
17.52992036
 20
19.08254620
  0
VERTEX
  8
0
 62
7
 10
17.49463196
 20
19.11897737
  0
VERTEX
  8
0
 62
7
 10
17.45478695
 20
19.15064830
  0
VERTEX
  8
0
 62
7
 10
17.41099288
 20
19.17825000
  0
VERTEX
  8
0
 62
7
 10
17.38494427
 20
19.19260749
  0
VERTEX
  8
0
 62
7
 10
17.36056641
 20
19.20589009
  0
VERTEX
  8
0
 62
7
 10
17.33649233
 20
19.22132247
  0
VERTEX
  8
0
 62
7
 10
17.31135504
 20
19.24212931
  0
VERTEX
  8
0
 62
7
 10
17.30369741
 20
19.25300620
  0
VERTEX
  8
0
 62
7
 10
17.29262232
 20
19.27263578
  0
VERTEX
  8
0
 62
7
 10
17.28139534
 20
19.29625781
  0
VERTEX
  8
0
 62
7
 10
17.27328205
 20
19.31911207
  0
VERTEX
  8
0
 62
7
 10
17.27042309
 20
19.32364197
  0
VERTEX
  8
0
 62
7
 10
17.26483966
 20
19.32725054
  0
VERTEX
  8
0
 62
7
 10
17.25737664
 20
19.32970744
  0
VERTEX
  8
0
 62
7
 10
17.24887888
 20
19.33078233
  0
VERTEX
  8
0
 62
7
 10
17.24019126
 20
19.33024488
  0
VERTEX
  8
0
 62
7
 10
17.23215866
 20
19.32786476
  0
VERTEX
  8
0
 62
7
 10
17.22562593
 20
19.32341164
  0
VERTEX
  8
0
 62
7
 10
17.22143797
 20
19.31665517
  0
VERTEX
  8
0
 62
7
 10
17.21544318
 20
19.29743348
  0
VERTEX
  8
0
 62
7
 10
17.20780612
 20
19.27912352
  0
VERTEX
  8
0
 62
7
 10
17.19855525
 20
19.26179248
  0
VERTEX
  8
0
 62
7
 10
17.18771907
 20
19.24550754
  0
VERTEX
  8
0
 62
7
 10
17.17532604
 20
19.23033589
  0
VERTEX
  8
0
 62
7
 10
17.16140465
 20
19.21634469
  0
VERTEX
  8
0
 62
7
 10
17.14598338
 20
19.20360114
  0
VERTEX
  8
0
 62
7
 10
17.12909070
 20
19.19217241
  0
VERTEX
  8
0
 62
7
 10
17.09823234
 20
19.17543481
  0
VERTEX
  8
0
 62
7
 10
17.06813341
 20
19.16576078
  0
VERTEX
  8
0
 62
7
 10
17.03590806
 20
19.16130765
  0
VERTEX
  8
0
 62
7
 10
16.99867045
 20
19.16023276
  0
SEQEND
  0
POLYLINE
  8
0
 62
7
 66
1
 70
1
  0
VERTEX
  8
0
 62
7
 10
16.99810000
 20
18.28360000
  0
VERTEX
  8
0
 62
7
 10
16.99430000
 20
18.28360000
  0
VERTEX
  8
0
 62
7
 10
16.95629095
 20
18.28169351
  0
VERTEX
  8
0
 62
7
 10
16.91934092
 20
18.27609648
  0
VERTEX
  8
0
 62
7
 10
16.88364054
 20
18.26699263
  0
VERTEX
  8
0
 62
7
 10
16.84938047
 20
18.25456563
  0
VERTEX
  8
0
 62
7
 10
16.81675135
 20
18.23899917
  0
VERTEX
  8
0
 62
7
 10
16.78594385
 20
18.22047695
  0
VERTEX
  8
0
 62
7
 10
16.75714860
 20
18.19918267
  0
VERTEX
  8
0
 62
7
 10
16.73055625
 20
18.17530000
  0
VERTEX
  8
0
 62
7
 10
16.70635746
 20
18.14901265
  0
VERTEX
  8
0
 62
7
 10
16.68474287
 20
18.12050430
  0
VERTEX
  8
0
 62
7
 10
16.66590314
 20
18.08995864
  0
VERTEX
  8
0
 62
7
 10
16.65002891
 20
18.05755938
  0
VERTEX
  8
0
 62
7
 10
16.63731083
 20
18.02349019
  0
VERTEX
  8
0
 62
7
 10
16.62793955
 20
17.98793477
  0
VERTEX
  8
0
 62
7
 10
16.62210573
 20
17.95107681
  0
VERTEX
  8
0
 62
7
 10
16.62000000
 20
17.91310000
  0
VERTEX
  8
0
 62
7
 10
16.62000000
 20
17.90930000
  0
VERTEX
  8
0
 62
7
 10
16.62190649
 20
17.87129095
  0
VERTEX
  8
0
 62
7
 10
16.62750352
 20
17.83434092
  0
VERTEX
  8
0
 62
7
 10
16.63660737
 20
17.79864054
  0
VERTEX
  8
0
 62
7
 10
16.64903438
 20
17.76438047
  0
VERTEX
  8
0
 62
7
 10
16.66460083
 20
17.73175135
  0
VERTEX
  8
0
 62
7
 10
16.68312305
 20
17.70094385
  0
VERTEX
  8
0
 62
7
 10
16.70441733
 20
17.67214860
  0
VERTEX
  8
0
 62
7
 10
16.72830000
 20
17.64555625
  0
VERTEX
  8
0
 62
7
 10
16.75458735
 20
17.62135746
  0
VERTEX
  8
0
 62
7
 10
16.78309570
 20
17.59974287
  0
VERTEX
  8
0
 62
7
 10
16.81364136
 20
17.58090314
  0
VERTEX
  8
0
 62
7
 10
16.84604063
 20
17.56502891
  0
VERTEX
  8
0
 62
7
 10
16.88010981
 20
17.55231083
  0
VERTEX
  8
0
 62
7
 10
16.91566523
 20
17.54293955
  0
VERTEX
  8
0
 62
7
 10
16.95252319
 20
17.53710573
  0
VERTEX
  8
0
 62
7
 10
16.99050000
 20
17.53500000
  0
VERTEX
  8
0
 62
7
 10
16.99430000
 20
17.53500000
  0
VERTEX
  8
0
 62
7
 10
17.03230905
 20
17.53690649
  0
VERTEX
  8
0
 62
7
 10
17.06925908
 20
17.54250352
  0
VERTEX
  8
0
 62
7
 10
17.10495946
 20
17.55160737
  0
VERTEX
  8
0
 62
7
 10
17.13921953
 20
17.56403438
  0
VERTEX
  8
0
 62
7
 10
17.17184865
 20
17.57960083
  0
VERTEX
  8
0
 62
7
 10
17.20265615
 20
17.59812305
  0
VERTEX
  8
0
 62
7
 10
17.23145140
 20
17.61941733
  0
VERTEX
  8
0
 62
7
 10
17.25804375
 20
17.64330000
  0
VERTEX
  8
0
 62
7
 10
17.28224254
 20
17.66958735
  0
VERTEX
  8
0
 62
7
 10
17.30385713
 20
17.69809570
  0
VERTEX
  8
0
 62
7
 10
17.32269686
 20
17.72864136
  0
VERTEX
  8
0
 62
7
 10
17.33857109
 20
17.76104063
  0
VERTEX
  8
0
 62
7
 10
17.35128917
 20
17.79510981
  0
VERTEX
  8
0
 62
7
 10
17.36066045
 20
17.83066523
  0
VERTEX
  8
0
 62
7
 10
17.36649427
 20
17.86752319
  0
VERTEX
  8
0
 62
7
 10
17.36860000
 20
17.90550000
  0
VERTEX
  8
0
 62
7
 10
17.36860000
 20
17.90930000
  0
VERTEX
  8
0
 62
7
 10
17.36669351
 20
17.94730905
  0
VERTEX
  8
0
 62
7
 10
17.36109648
 20
17.98425908
  0
VERTEX
  8
0
 62
7
 10
17.35199263
 20
18.01995946
  0
VERTEX
  8
0
 62
7
 10
17.33956563
 20
18.05421953
  0
VERTEX
  8
0
 62
7
 10
17.32399917
 20
18.08684865
  0
VERTEX
  8
0
 62
7
 10
17.30547695
 20
18.11765615
  0
VERTEX
  8
0
 62
7
 10
17.28418267
 20
18.14645140
  0
VERTEX
  8
0
 62
7
 10
17.26030000
 20
18.17304375
  0
VERTEX
  8
0
 62
7
 10
17.23401265
 20
18.19724254
  0
VERTEX
  8
0
 62
7
 10
17.20550430
 20
18.21885713
  0
VERTEX
  8
0
 62
7
 10
17.17495864
 20
18.23769686
  0
VERTEX
  8
0
 62
7
 10
17.14255938
 20
18.25357109
  0
VERTEX
  8
0
 62
7
 10
17.10849019
 20
18.26628917
  0
VERTEX
  8
0
 62
7
 10
17.07293477
 20
18.27566045
  0
VERTEX
  8
0
 62
7
 10
17.03607681
 20
18.28149427
  0
VERTEX
  8
0
 62
7
 10
16.99810000
 20
18.28360000
  0
SEQEND
  0
POLYLINE
  8
0
 62
7
 66
1
 70
1
  0
VERTEX
  8
0
 62
7
 10
15.80466904
 20
18.30059483
  0
VERTEX
  8
0
 62
7
 10
15.79155613
 20
18.26365180
  0
VERTEX
  8
0
 62
7
 10
15.77631681
 20
18.23108513
  0
VERTEX
  8
0
 62
7
 10
15.75682465
 20
18.20235735
  0
VERTEX
  8
0
 62
7
 10
15.73095324
 20
18.17693103
  0
VERTEX
  8
0
 62
7
 10
15.71501777
 20
18.16433944
  0
VERTEX
  8
0
 62
7
 10
15.69824692
 20
18.15359052
  0
VERTEX
  8
0
 62
7
 10
15.68071663
 20
18.14468427
  0
VERTEX
  8
0
 62
7
 10
15.66250286
 20
18.13762069
  0
VERTEX
  8
0
 62
7
 10
15.64368153
 20
18.13239978
  0
VERTEX
  8
0
 62
7
 10
15.62432861
 20
18.12902155
  0
VERTEX
  8
0
 62
7
 10
15.60452002
 20
18.12748599
  0
VERTEX
  8
0
 62
7
 10
15.58433171
 20
18.12779310
  0
VERTEX
  8
0
 62
7
 10
15.57655383
 20
18.12574889
  0
VERTEX
  8
0
 62
7
 10
15.57025685
 20
18.12080630
  0
VERTEX
  8
0
 62
7
 10
15.56547874
 20
18.11382910
  0
VERTEX
  8
0
 62
7
 10
15.56225747
 20
18.10568103
  0
VERTEX
  8
0
 62
7
 10
15.56063102
 20
18.09722586
  0
VERTEX
  8
0
 62
7
 10
15.56063735
 20
18.08932732
  0
VERTEX
  8
0
 62
7
 10
15.56231443
 20
18.08284917
  0
VERTEX
  8
0
 62
7
 10
15.56570024
 20
18.07865517
  0
VERTEX
  8
0
 62
7
 10
15.58500254
 20
18.06390100
  0
VERTEX
  8
0
 62
7
 10
15.60407701
 20
18.04599892
  0
VERTEX
  8
0
 62
7
 10
15.61935431
 20
18.02947885
  0
VERTEX
  8
0
 62
7
 10
15.62726509
 20
18.01887069
  0
VERTEX
  8
0
 62
7
 10
15.63923884
 20
17.98851778
  0
VERTEX
  8
0
 62
7
 10
15.64650410
 20
17.96092888
  0
VERTEX
  8
0
 62
7
 10
15.65164294
 20
17.93364709
  0
VERTEX
  8
0
 62
7
 10
15.65723744
 20
17.90421552
  0
VERTEX
  8
0
 62
7
 10
15.66984406
 20
17.85423303
  0
VERTEX
  8
0
 62
7
 10
15.68761483
 20
17.80655388
  0
VERTEX
  8
0
 62
7
 10
15.71146108
 20
17.76163874
  0
VERTEX
  8
0
 62
7
 10
15.74229413
 20
17.71994828
  0
VERTEX
  8
0
 62
7
 10
15.76577332
 20
17.69759308
  0
VERTEX
  8
0
 62
7
 10
15.79282186
 20
17.67930711
  0
VERTEX
  8
0
 62
7
 10
15.82214870
 20
17.66455294
  0
VERTEX
  8
0
 62
7
 10
15.85246280
 20
17.65279310
  0
VERTEX
  8
0
 62
7
 10
15.87511927
 20
17.64602544
  0
VERTEX
  8
0
 62
7
 10
15.89807951
 20
17.64149394
  0
VERTEX
  8
0
 62
7
 10
15.92126759
 20
17.63890108
  0
VERTEX
  8
0
 62
7
 10
15.94460755
 20
17.63794935
  0
VERTEX
  8
0
 62
7
 10
15.96802345
 20
17.63834124
  0
VERTEX
  8
0
 62
7
 10
15.99143936
 20
17.63977923
  0
VERTEX
  8
0
 62
7
 10
16.01477932
 20
17.64196580
  0
VERTEX
  8
0
 62
7
 10
16.03796739
 20
17.64460345
  0
VERTEX
  8
0
 62
7
 10
16.06842547
 20
17.64942767
  0
VERTEX
  8
0
 62
7
 10
16.09845637
 20
17.65632489
  0
VERTEX
  8
0
 62
7
 10
16.12808856
 20
17.66498801
  0
VERTEX
  8
0
 62
7
 10
16.15735053
 20
17.67510991
  0
VERTEX
  8
0
 62
7
 10
16.18627076
 20
17.68638349
  0
VERTEX
  8
0
 62
7
 10
16.21487771
 20
17.69850162
  0
VERTEX
  8
0
 62
7
 10
16.24319988
 20
17.71115719
  0
VERTEX
  8
0
 62
7
 10
16.27126574
 20
17.72404310
  0
VERTEX
  8
0
 62
7
 10
16.34137423
 20
17.75611072
  0
VERTEX
  8
0
 62
7
 10
16.40928035
 20
17.79078879
  0
VERTEX
  8
0
 62
7
 10
16.47460439
 20
17.82976643
  0
VERTEX
  8
0
 62
7
 10
16.53696664
 20
17.87473276
  0
VERTEX
  8
0
 62
7
 10
16.53637175
 20
17.89569316
  0
VERTEX
  8
0
 62
7
 10
16.53706790
 20
17.91895690
  0
VERTEX
  8
0
 62
7
 10
16.53913103
 20
17.94222064
  0
VERTEX
  8
0
 62
7
 10
16.54263709
 20
17.96318103
  0
VERTEX
  8
0
 62
7
 10
16.51509492
 20
18.00904310
  0
VERTEX
  8
0
 62
7
 10
16.50588678
 20
18.01427840
  0
VERTEX
  8
0
 62
7
 10
16.48502131
 20
18.02221053
  0
VERTEX
  8
0
 62
7
 10
16.45534639
 20
18.03223486
  0
VERTEX
  8
0
 62
7
 10
16.41970992
 20
18.04374677
  0
VERTEX
  8
0
 62
7
 10
16.38095976
 20
18.05614162
  0
VERTEX
  8
0
 62
7
 10
16.34194380
 20
18.06881479
  0
VERTEX
  8
0
 62
7
 10
16.30550992
 20
18.08116165
  0
VERTEX
  8
0
 62
7
 10
16.27450600
 20
18.09257759
  0
VERTEX
  8
0
 62
7
 10
16.23258836
 20
18.10856501
  0
VERTEX
  8
0
 62
7
 10
16.19023406
 20
18.12419733
  0
VERTEX
  8
0
 62
7
 10
16.14768989
 20
18.13981046
  0
VERTEX
  8
0
 62
7
 10
16.10520268
 20
18.15574030
  0
VERTEX
  8
0
 62
7
 10
16.06301924
 20
18.17232275
  0
VERTEX
  8
0
 62
7
 10
16.02138640
 20
18.18989372
  0
VERTEX
  8
0
 62
7
 10
15.98055096
 20
18.20878911
  0
VERTEX
  8
0
 62
7
 10
15.94075975
 20
18.22934483
  0
VERTEX
  8
0
 62
7
 10
15.95372076
 20
18.26783621
  0
VERTEX
  8
0
 62
7
 10
15.99799581
 20
18.26118851
  0
VERTEX
  8
0
 62
7
 10
16.04211897
 20
18.25258297
  0
VERTEX
  8
0
 62
7
 10
16.08609024
 20
18.24244188
  0
VERTEX
  8
0
 62
7
 10
16.12990962
 20
18.23118750
  0
VERTEX
  8
0
 62
7
 10
16.17357712
 20
18.21924212
  0
VERTEX
  8
0
 62
7
 10
16.21709273
 20
18.20702802
  0
VERTEX
  8
0
 62
7
 10
16.26045645
 20
18.19496747
  0
VERTEX
  8
0
 62
7
 10
16.30366829
 20
18.18348276
  0
VERTEX
  8
0
 62
7
 10
16.33534305
 20
18.17423421
  0
VERTEX
  8
0
 62
7
 10
16.37206805
 20
18.16262473
  0
VERTEX
  8
0
 62
7
 10
16.41114729
 20
18.14982520
  0
VERTEX
  8
0
 62
7
 10
16.44988479
 20
18.13700647
  0
VERTEX
  8
0
 62
7
 10
16.48558455
 20
18.12533941
  0
VERTEX
  8
0
 62
7
 10
16.51555058
 20
18.11599488
  0
VERTEX
  8
0
 62
7
 10
16.53708689
 20
18.11014376
  0
VERTEX
  8
0
 62
7
 10
16.54749747
 20
18.10895690
  0
VERTEX
  8
0
 62
7
 10
16.59691136
 20
18.12943103
  0
VERTEX
  8
0
 62
7
 10
16.61827679
 20
18.16894612
  0
VERTEX
  8
0
 62
7
 10
16.64389505
 20
18.20477586
  0
VERTEX
  8
0
 62
7
 10
16.63268390
 20
18.24173168
  0
VERTEX
  8
0
 62
7
 10
16.61982097
 20
18.27776616
  0
VERTEX
  8
0
 62
7
 10
16.60547715
 20
18.31303287
  0
VERTEX
  8
0
 62
7
 10
16.58982330
 20
18.34768534
  0
VERTEX
  8
0
 62
7
 10
16.57303030
 20
18.38187716
  0
VERTEX
  8
0
 62
7
 10
16.55526902
 20
18.41576185
  0
VERTEX
  8
0
 62
7
 10
16.53671033
 20
18.44949300
  0
VERTEX
  8
0
 62
7
 10
16.51752511
 20
18.48322414
  0
VERTEX
  8
0
 62
7
 10
16.48683129
 20
18.53681519
  0
VERTEX
  8
0
 62
7
 10
16.45423888
 20
18.58948491
  0
VERTEX
  8
0
 62
7
 10
16.41784930
 20
18.63939063
  0
VERTEX
  8
0
 62
7
 10
16.37576396
 20
18.68468966
  0
VERTEX
  8
0
 62
7
 10
16.35835076
 20
18.70034117
  0
VERTEX
  8
0
 62
7
 10
16.34065276
 20
18.71577196
  0
VERTEX
  8
0
 62
7
 10
16.32253708
 20
18.73068449
  0
VERTEX
  8
0
 62
7
 10
16.30387081
 20
18.74478125
  0
VERTEX
  8
0
 62
7
 10
16.28452104
 20
18.75776473
  0
VERTEX
  8
0
 62
7
 10
16.26435489
 20
18.76933742
  0
VERTEX
  8
0
 62
7
 10
16.24323944
 20
18.77920179
  0
VERTEX
  8
0
 62
7
 10
16.22104179
 20
18.78706034
  0
VERTEX
  8
0
 62
7
 10
16.18952525
 20
18.79516043
  0
VERTEX
  8
0
 62
7
 10
16.15724927
 20
18.80026616
  0
VERTEX
  8
0
 62
7
 10
16.12466952
 20
18.80122589
  0
VERTEX
  8
0
 62
7
 10
16.09224166
 20
18.79688793
  0
VERTEX
  8
0
 62
7
 10
16.06720879
 20
18.79011067
  0
VERTEX
  8
0
 62
7
 10
16.04310623
 20
18.78151953
  0
VERTEX
  8
0
 62
7
 10
16.01987702
 20
18.77122008
  0
VERTEX
  8
0
 62
7
 10
15.99746421
 20
18.75931789
  0
VERTEX
  8
0
 62
7
 10
15.97581082
 20
18.74591852
  0
VERTEX
  8
0
 62
7
 10
15.95485992
 20
18.73112756
  0
VERTEX
  8
0
 62
7
 10
15.93455453
 20
18.71505056
  0
VERTEX
  8
0
 62
7
 10
15.91483771
 20
18.69779310
  0
VERTEX
  8
0
 62
7
 10
15.89313053
 20
18.67762608
  0
VERTEX
  8
0
 62
7
 10
15.87301817
 20
18.65868750
  0
VERTEX
  8
0
 62
7
 10
15.85093127
 20
18.64067026
  0
VERTEX
  8
0
 62
7
 10
15.82330051
 20
18.62326724
  0
VERTEX
  8
0
 62
7
 10
15.81069389
 20
18.61891649
  0
VERTEX
  8
0
 62
7
 10
15.78867028
 20
18.61425862
  0
VERTEX
  8
0
 62
7
 10
15.76269761
 20
18.61082920
  0
VERTEX
  8
0
 62
7
 10
15.73824382
 20
18.61016379
  0
VERTEX
  8
0
 62
7
 10
15.73319990
 20
18.60905851
  0
VERTEX
  8
0
 62
7
 10
15.72811802
 20
18.60500687
  0
VERTEX
  8
0
 62
7
 10
15.72349180
 20
18.59874786
  0
VERTEX
  8
0
 62
7
 10
15.71981487
 20
18.59102047
  0
VERTEX
  8
0
 62
7
 10
15.71758086
 20
18.58256370
  0
VERTEX
  8
0
 62
7
 10
15.71728342
 20
18.57411651
  0
VERTEX
  8
0
 62
7
 10
15.71941616
 20
18.56641792
  0
VERTEX
  8
0
 62
7
 10
15.72447273
 20
18.56020690
  0
VERTEX
  8
0
 62
7
 10
15.74109486
 20
18.54850625
  0
VERTEX
  8
0
 62
7
 10
15.75629305
 20
18.53554836
  0
VERTEX
  8
0
 62
7
 10
15.77001034
 20
18.52138121
  0
VERTEX
  8
0
 62
7
 10
15.78218977
 20
18.50605280
  0
VERTEX
  8
0
 62
7
 10
15.79277439
 20
18.48961111
  0
VERTEX
  8
0
 62
7
 10
15.80170725
 20
18.47210412
  0
VERTEX
  8
0
 62
7
 10
15.80893137
 20
18.45357983
  0
VERTEX
  8
0
 62
7
 10
15.81438981
 20
18.43408621
  0
VERTEX
  8
0
 62
7
 10
15.82107283
 20
18.39975364
  0
VERTEX
  8
0
 62
7
 10
15.82107283
 20
18.36826185
  0
VERTEX
  8
0
 62
7
 10
15.81530113
 20
18.33630940
  0
VERTEX
  8
0
 62
7
 10
15.80466904
 20
18.30059483
  0
SEQEND
  0
POLYLINE
  8
0
 62
7
 66
1
 70
1
  0
VERTEX
  8
0
 62
7
 10
16.25365274
 20
16.89870690
  0
VERTEX
  8
0
 62
7
 10
16.26978598
 20
16.88660316
  0
VERTEX
  8
0
 62
7
 10
16.28475159
 20
16.87466258
  0
VERTEX
  8
0
 62
7
 10
16.29852109
 20
16.86258764
  0
VERTEX
  8
0
 62
7
 10
16.31106600
 20
16.85008082
  0
VERTEX
  8
0
 62
7
 10
16.32235785
 20
16.83684461
  0
VERTEX
  8
0
 62
7
 10
16.33236815
 20
16.82258149
  0
VERTEX
  8
0
 62
7
 10
16.34106842
 20
16.80699396
  0
VERTEX
  8
0
 62
7
 10
16.34843019
 20
16.78978448
  0
VERTEX
  8
0
 62
7
 10
16.35561001
 20
16.77087470
  0
VERTEX
  8
0
 62
7
 10
16.36075835
 20
16.75167699
  0
VERTEX
  8
0
 62
7
 10
16.36389418
 20
16.73228735
  0
VERTEX
  8
0
 62
7
 10
16.36503650
 20
16.71280172
  0
VERTEX
  8
0
 62
7
 10
16.36420428
 20
16.69331610
  0
VERTEX
  8
0
 62
7
 10
16.36141653
 20
16.67392645
  0
VERTEX
  8
0
 62
7
 10
16.35669221
 20
16.65472875
  0
VERTEX
  8
0
 62
7
 10
16.35005032
 20
16.63581897
  0
VERTEX
  8
0
 62
7
 10
16.34953295
 20
16.62769169
  0
VERTEX
  8
0
 62
7
 10
16.35229065
 20
16.62009227
  0
VERTEX
  8
0
 62
7
 10
16.35749753
 20
16.61331821
  0
VERTEX
  8
0
 62
7
 10
16.36432769
 20
16.60766703
  0
VERTEX
  8
0
 62
7
 10
16.37195526
 20
16.60343624
  0
VERTEX
  8
0
 62
7
 10
16.37955436
 20
16.60092336
  0
VERTEX
  8
0
 62
7
 10
16.38629909
 20
16.60042590
  0
VERTEX
  8
0
 62
7
 10
16.39136357
 20
16.60224138
  0
VERTEX
  8
0
 62
7
 10
16.41110887
 20
16.61634294
  0
VERTEX
  8
0
 62
7
 10
16.43389191
 20
16.62906250
  0
VERTEX
  8
0
 62
7
 10
16.45424476
 20
16.63840383
  0
VERTEX
  8
0
 62
7
 10
16.46669949
 20
16.64237069
  0
VERTEX
  8
0
 62
7
 10
16.49941847
 20
16.64434133
  0
VERTEX
  8
0
 62
7
 10
16.52796056
 20
16.64278017
  0
VERTEX
  8
0
 62
7
 10
16.55543944
 20
16.63937635
  0
VERTEX
  8
0
 62
7
 10
16.58496880
 20
16.63581897
  0
VERTEX
  8
0
 62
7
 10
16.61074686
 20
16.63337966
  0
VERTEX
  8
0
 62
7
 10
16.63642050
 20
16.63227438
  0
VERTEX
  8
0
 62
7
 10
16.66196124
 20
16.63260868
  0
VERTEX
  8
0
 62
7
 10
16.68734060
 20
16.63448815
  0
VERTEX
  8
0
 62
7
 10
16.71253010
 20
16.63801834
  0
VERTEX
  8
0
 62
7
 10
16.73750126
 20
16.64330482
  0
VERTEX
  8
0
 62
7
 10
16.76222561
 20
16.65045318
  0
VERTEX
  8
0
 62
7
 10
16.78667466
 20
16.65956897
  0
VERTEX
  8
0
 62
7
 10
16.81509018
 20
16.67516770
  0
VERTEX
  8
0
 62
7
 10
16.84084767
 20
16.69529634
  0
VERTEX
  8
0
 62
7
 10
16.86402309
 20
16.71864965
  0
VERTEX
  8
0
 62
7
 10
16.88469237
 20
16.74392241
  0
VERTEX
  8
0
 62
7
 10
16.89817550
 20
16.76324008
  0
VERTEX
  8
0
 62
7
 10
16.90962715
 20
16.78360385
  0
VERTEX
  8
0
 62
7
 10
16.91929412
 20
16.80483137
  0
VERTEX
  8
0
 62
7
 10
16.92742323
 20
16.82674030
  0
VERTEX
  8
0
 62
7
 10
16.93426131
 20
16.84914829
  0
VERTEX
  8
0
 62
7
 10
16.94005516
 20
16.87187298
  0
VERTEX
  8
0
 62
7
 10
16.94505161
 20
16.89473203
  0
VERTEX
  8
0
 62
7
 10
16.94949747
 20
16.91754310
  0
VERTEX
  8
0
 62
7
 10
16.95440848
 20
16.94805437
  0
VERTEX
  8
0
 62
7
 10
16.95719308
 20
16.97874798
  0
VERTEX
  8
0
 62
7
 10
16.95815503
 20
17.00957595
  0
VERTEX
  8
0
 62
7
 10
16.95759811
 20
17.04049030
  0
VERTEX
  8
0
 62
7
 10
16.95582609
 20
17.07144304
  0
VERTEX
  8
0
 62
7
 10
16.95314276
 20
17.10238618
  0
VERTEX
  8
0
 62
7
 10
16.94985187
 20
17.13327174
  0
VERTEX
  8
0
 62
7
 10
16.94625722
 20
17.16405172
  0
VERTEX
  8
0
 62
7
 10
16.94211830
 20
17.20255910
  0
VERTEX
  8
0
 62
7
 10
16.93744777
 20
17.24070178
  0
VERTEX
  8
0
 62
7
 10
16.93201781
 20
17.27849896
  0
VERTEX
  8
0
 62
7
 10
16.92560059
 20
17.31596983
  0
VERTEX
  8
0
 62
7
 10
16.91796827
 20
17.35313359
  0
VERTEX
  8
0
 62
7
 10
16.90889303
 20
17.39000943
  0
VERTEX
  8
0
 62
7
 10
16.89814702
 20
17.42661655
  0
VERTEX
  8
0
 62
7
 10
16.88550244
 20
17.46297414
  0
VERTEX
  8
0
 62
7
 10
16.84327786
 20
17.47689655
  0
VERTEX
  8
0
 62
7
 10
16.80287594
 20
17.49573276
  0
VERTEX
  8
0
 62
7
 10
16.75103186
 20
17.48426724
  0
VERTEX
  8
0
 62
7
 10
16.72914748
 20
17.45967268
  0
VERTEX
  8
0
 62
7
 10
16.68835318
 20
17.40421336
  0
VERTEX
  8
0
 62
7
 10
16.64042019
 20
17.33800512
  0
VERTEX
  8
0
 62
7
 10
16.59711975
 20
17.28116379
  0
VERTEX
  8
0
 62
7
 10
16.54073172
 20
17.21064318
  0
VERTEX
  8
0
 62
7
 10
16.48441964
 20
17.13958513
  0
VERTEX
  8
0
 62
7
 10
16.42613302
 20
17.07052330
  0
VERTEX
  8
0
 62
7
 10
16.36382140
 20
17.00599138
  0
VERTEX
  8
0
 62
7
 10
16.33141885
 20
17.02974138
  0
VERTEX
  8
0
 62
7
 10
16.35132237
 20
17.06987709
  0
VERTEX
  8
0
 62
7
 10
16.37308651
 20
17.10928341
  0
VERTEX
  8
0
 62
7
 10
16.39629357
 20
17.14807550
  0
VERTEX
  8
0
 62
7
 10
16.42052586
 20
17.18636853
  0
VERTEX
  8
0
 62
7
 10
16.44536571
 20
17.22427768
  0
VERTEX
  8
0
 62
7
 10
16.47039541
 20
17.26191810
  0
VERTEX
  8
0
 62
7
 10
16.49519728
 20
17.29940497
  0
VERTEX
  8
0
 62
7
 10
16.51935364
 20
17.33685345
  0
VERTEX
  8
0
 62
7
 10
16.53798035
 20
17.36416723
  0
VERTEX
  8
0
 62
7
 10
16.56037577
 20
17.39551185
  0
VERTEX
  8
0
 62
7
 10
16.58461281
 20
17.42869915
  0
VERTEX
  8
0
 62
7
 10
16.60876442
 20
17.46154095
  0
VERTEX
  8
0
 62
7
 10
16.63090352
 20
17.49184907
  0
VERTEX
  8
0
 62
7
 10
16.64910306
 20
17.51743534
  0
VERTEX
  8
0
 62
7
 10
16.66143596
 20
17.53611160
  0
VERTEX
  8
0
 62
7
 10
16.66597517
 20
17.54568966
  0
VERTEX
  8
0
 62
7
 10
16.66111479
 20
17.59892241
  0
VERTEX
  8
0
 62
7
 10
16.63063614
 20
17.63168103
  0
VERTEX
  8
0
 62
7
 10
16.60441033
 20
17.66689655
  0
VERTEX
  8
0
 62
7
 10
16.56574086
 20
17.66773631
  0
VERTEX
  8
0
 62
7
 10
16.52744162
 20
17.66670461
  0
VERTEX
  8
0
 62
7
 10
16.48942716
 20
17.66400298
  0
VERTEX
  8
0
 62
7
 10
16.45161206
 20
17.65983297
  0
VERTEX
  8
0
 62
7
 10
16.41391087
 20
17.65439613
  0
VERTEX
  8
0
 62
7
 10
16.37623816
 20
17.64789399
  0
VERTEX
  8
0
 62
7
 10
16.33850849
 20
17.64052810
  0
VERTEX
  8
0
 62
7
 10
16.30063643
 20
17.63250000
  0
VERTEX
  8
0
 62
7
 10
16.27047263
 20
17.62634656
  0
VERTEX
  8
0
 62
7
 10
16.24022340
 20
17.61997239
  0
VERTEX
  8
0
 62
7
 10
16.21003112
 20
17.61307996
  0
VERTEX
  8
0
 62
7
 10
16.18003820
 20
17.60537177
  0
VERTEX
  8
0
 62
7
 10
16.15038702
 20
17.59655029
  0
VERTEX
  8
0
 62
7
 10
16.12121998
 20
17.58631802
  0
VERTEX
  8
0
 62
7
 10
16.09267947
 20
17.57437744
  0
VERTEX
  8
0
 62
7
 10
16.06490789
 20
17.56043103
  0
VERTEX
  8
0
 62
7
 10
16.04478920
 20
17.54868400
  0
VERTEX
  8
0
 62
7
 10
16.02470848
 20
17.53662985
  0
VERTEX
  8
0
 62
7
 10
16.00493153
 20
17.52403825
  0
VERTEX
  8
0
 62
7
 10
15.98572416
 20
17.51067888
  0
VERTEX
  8
0
 62
7
 10
15.96735217
 20
17.49632139
  0
VERTEX
  8
0
 62
7
 10
15.95008136
 20
17.48073545
  0
VERTEX
  8
0
 62
7
 10
15.93417753
 20
17.46369073
  0
VERTEX
  8
0
 62
7
 10
15.91990648
 20
17.44495690
  0
VERTEX
  8
0
 62
7
 10
15.90250277
 20
17.41717605
  0
VERTEX
  8
0
 62
7
 10
15.88760519
 20
17.38793642
  0
VERTEX
  8
0
 62
7
 10
15.87650479
 20
17.35731479
  0
VERTEX
  8
0
 62
7
 10
15.87049260
 20
17.32538793
  0
VERTEX
  8
0
 62
7
 10
15.86937401
 20
17.29946895
  0
VERTEX
  8
0
 62
7
 10
15.87020148
 20
17.27389547
  0
VERTEX
  8
0
 62
7
 10
15.87287058
 20
17.24862911
  0
VERTEX
  8
0
 62
7
 10
15.87727688
 20
17.22363147
  0
VERTEX
  8
0
 62
7
 10
15.88331597
 20
17.19886416
  0
VERTEX
  8
0
 62
7
 10
15.89088342
 20
17.17428879
  0
VERTEX
  8
0
 62
7
 10
15.89987481
 20
17.14986699
  0
VERTEX
  8
0
 62
7
 10
15.91018572
 20
17.12556034
  0
VERTEX
  8
0
 62
7
 10
15.92281765
 20
17.09885439
  0
VERTEX
  8
0
 62
7
 10
15.93469015
 20
17.07406789
  0
VERTEX
  8
0
 62
7
 10
15.94504377
 20
17.04759227
  0
VERTEX
  8
0
 62
7
 10
15.95311910
 20
17.01581897
  0
VERTEX
  8
0
 62
7
 10
15.95311910
 20
17.00262594
  0
VERTEX
  8
0
 62
7
 10
15.95068891
 20
16.98029634
  0
VERTEX
  8
0
 62
7
 10
15.94582852
 20
16.95443494
  0
VERTEX
  8
0
 62
7
 10
15.93853795
 20
16.93064655
  0
VERTEX
  8
0
 62
7
 10
15.93825791
 20
16.92561919
  0
VERTEX
  8
0
 62
7
 10
15.94070234
 20
16.91960331
  0
VERTEX
  8
0
 62
7
 10
15.94533014
 20
16.91329952
  0
VERTEX
  8
0
 62
7
 10
15.95160023
 20
16.90740841
  0
VERTEX
  8
0
 62
7
 10
15.95897149
 20
16.90263057
  0
VERTEX
  8
0
 62
7
 10
15.96690284
 20
16.89966662
  0
VERTEX
  8
0
 62
7
 10
15.97485317
 20
16.89921715
  0
VERTEX
  8
0
 62
7
 10
15.98228139
 20
16.90198276
  0
VERTEX
  8
0
 62
7
 10
15.99848425
 20
16.91430083
  0
VERTEX
  8
0
 62
7
 10
16.01545603
 20
16.92482422
  0
VERTEX
  8
0
 62
7
 10
16.03313029
 20
16.93352413
  0
VERTEX
  8
0
 62
7
 10
16.05144058
 20
16.94037177
  0
VERTEX
  8
0
 62
7
 10
16.07032044
 20
16.94533835
  0
VERTEX
  8
0
 62
7
 10
16.08970343
 20
16.94839507
  0
VERTEX
  8
0
 62
7
 10
16.10952310
 20
16.94951315
  0
VERTEX
  8
0
 62
7
 10
16.12971299
 20
16.94866379
  0
VERTEX
  8
0
 62
7
 10
16.16445713
 20
16.94465854
  0
VERTEX
  8
0
 62
7
 10
16.19441683
 20
16.93504849
  0
VERTEX
  8
0
 62
7
 10
16.22300954
 20
16.91975687
  0
VERTEX
  8
0
 62
7
 10
16.25365274
 20
16.89870690
  0
SEQEND
  0
POLYLINE
  8
0
 62
7
 66
1
 70
1
  0
VERTEX
  8
0
 62
7
 10
17.72581644
 20
16.89233621
  0
VERTEX
  8
0
 62
7
 10
17.74245597
 20
16.90383371
  0
VERTEX
  8
0
 62
7
 10
17.75853542
 20
16.91429472
  0
VERTEX
  8
0
 62
7
 10
17.77433008
 20
16.92360405
  0
VERTEX
  8
0
 62
7
 10
17.79011524
 20
16.93164655
  0
VERTEX
  8
0
 62
7
 10
17.80616621
 20
16.93830704
  0
VERTEX
  8
0
 62
7
 10
17.82275828
 20
16.94347037
  0
VERTEX
  8
0
 62
7
 10
17.84016674
 20
16.94702135
  0
VERTEX
  8
0
 62
7
 10
17.85866689
 20
16.94884483
  0
VERTEX
  8
0
 62
7
 10
17.87889000
 20
16.94969578
  0
VERTEX
  8
0
 62
7
 10
17.89879035
 20
16.94858890
  0
VERTEX
  8
0
 62
7
 10
17.91827302
 20
16.94556257
  0
VERTEX
  8
0
 62
7
 10
17.93724307
 20
16.94065517
  0
VERTEX
  8
0
 62
7
 10
17.95560557
 20
16.93390511
  0
VERTEX
  8
0
 62
7
 10
17.97326559
 20
16.92535075
  0
VERTEX
  8
0
 62
7
 10
17.99012820
 20
16.91503051
  0
VERTEX
  8
0
 62
7
 10
18.00609848
 20
16.90298276
  0
VERTEX
  8
0
 62
7
 10
18.01356151
 20
16.89994843
  0
VERTEX
  8
0
 62
7
 10
18.02160361
 20
16.90020595
  0
VERTEX
  8
0
 62
7
 10
18.02966469
 20
16.90305474
  0
VERTEX
  8
0
 62
7
 10
18.03718468
 20
16.90779418
  0
VERTEX
  8
0
 62
7
 10
18.04360348
 20
16.91372368
  0
VERTEX
  8
0
 62
7
 10
18.04836103
 20
16.92014265
  0
VERTEX
  8
0
 62
7
 10
18.05089722
 20
16.92635047
  0
VERTEX
  8
0
 62
7
 10
18.05065199
 20
16.93164655
  0
VERTEX
  8
0
 62
7
 10
18.04324750
 20
16.95461598
  0
VERTEX
  8
0
 62
7
 10
18.03819726
 20
16.98027263
  0
VERTEX
  8
0
 62
7
 10
18.03572909
 20
17.00270461
  0
VERTEX
  8
0
 62
7
 10
18.03607084
 20
17.01600000
  0
VERTEX
  8
0
 62
7
 10
18.04401959
 20
17.04742780
  0
VERTEX
  8
0
 62
7
 10
18.05409476
 20
17.07394181
  0
VERTEX
  8
0
 62
7
 10
18.06568879
 20
17.09892026
  0
VERTEX
  8
0
 62
7
 10
18.07819415
 20
17.12574138
  0
VERTEX
  8
0
 62
7
 10
18.08850506
 20
17.14954416
  0
VERTEX
  8
0
 62
7
 10
18.09749645
 20
17.17366366
  0
VERTEX
  8
0
 62
7
 10
18.10506390
 20
17.19810946
  0
VERTEX
  8
0
 62
7
 10
18.11110299
 20
17.22289116
  0
VERTEX
  8
0
 62
7
 10
18.11550930
 20
17.24801837
  0
VERTEX
  8
0
 62
7
 10
18.11817839
 20
17.27350067
  0
VERTEX
  8
0
 62
7
 10
18.11900586
 20
17.29934767
  0
VERTEX
  8
0
 62
7
 10
18.11788728
 20
17.32556897
  0
VERTEX
  8
0
 62
7
 10
18.11187508
 20
17.35713753
  0
VERTEX
  8
0
 62
7
 10
18.10077468
 20
17.38770797
  0
VERTEX
  8
0
 62
7
 10
18.08587710
 20
17.41689642
  0
VERTEX
  8
0
 62
7
 10
18.06847339
 20
17.44431897
  0
VERTEX
  8
0
 62
7
 10
18.05420234
 20
17.46311998
  0
VERTEX
  8
0
 62
7
 10
18.03829851
 20
17.48032786
  0
VERTEX
  8
0
 62
7
 10
18.02102770
 20
17.49611534
  0
VERTEX
  8
0
 62
7
 10
18.00265571
 20
17.51065517
  0
VERTEX
  8
0
 62
7
 10
17.98344834
 20
17.52412012
  0
VERTEX
  8
0
 62
7
 10
17.96367139
 20
17.53668292
  0
VERTEX
  8
0
 62
7
 10
17.94359067
 20
17.54851633
  0
VERTEX
  8
0
 62
7
 10
17.92347198
 20
17.55979310
  0
VERTEX
  8
0
 62
7
 10
17.89596621
 20
17.57380829
  0
VERTEX
  8
0
 62
7
 10
17.86761556
 20
17.58592322
  0
VERTEX
  8
0
 62
7
 10
17.83856243
 20
17.59638743
  0
VERTEX
  8
0
 62
7
 10
17.80894922
 20
17.60545043
  0
VERTEX
  8
0
 62
7
 10
17.77891833
 20
17.61336177
  0
VERTEX
  8
0
 62
7
 10
17.74861213
 20
17.62037096
  0
VERTEX
  8
0
 62
7
 10
17.71817304
 20
17.62672754
  0
VERTEX
  8
0
 62
7
 10
17.68774344
 20
17.63268103
  0
VERTEX
  8
0
 62
7
 10
17.64987296
 20
17.64071074
  0
VERTEX
  8
0
 62
7
 10
17.61215437
 20
17.64808782
  0
VERTEX
  8
0
 62
7
 10
17.57451172
 20
17.65462035
  0
VERTEX
  8
0
 62
7
 10
17.53686907
 20
17.66011638
  0
VERTEX
  8
0
 62
7
 10
17.49915048
 20
17.66438396
  0
VERTEX
  8
0
 62
7
 10
17.46128000
 20
17.66723114
  0
VERTEX
  8
0
 62
7
 10
17.42318169
 20
17.66846599
  0
VERTEX
  8
0
 62
7
 10
17.38477961
 20
17.66789655
  0
VERTEX
  8
0
 62
7
 10
17.35855380
 20
17.63165733
  0
VERTEX
  8
0
 62
7
 10
17.32807515
 20
17.59910345
  0
VERTEX
  8
0
 62
7
 10
17.32321477
 20
17.54587069
  0
VERTEX
  8
0
 62
7
 10
17.32748501
 20
17.53629263
  0
VERTEX
  8
0
 62
7
 10
17.33960590
 20
17.51761638
  0
VERTEX
  8
0
 62
7
 10
17.35763140
 20
17.49203011
  0
VERTEX
  8
0
 62
7
 10
17.37961545
 20
17.46172198
  0
VERTEX
  8
0
 62
7
 10
17.40361201
 20
17.42888019
  0
VERTEX
  8
0
 62
7
 10
17.42767502
 20
17.39569289
  0
VERTEX
  8
0
 62
7
 10
17.44985842
 20
17.36434826
  0
VERTEX
  8
0
 62
7
 10
17.46821617
 20
17.33703448
  0
VERTEX
  8
0
 62
7
 10
17.49287407
 20
17.29935087
  0
VERTEX
  8
0
 62
7
 10
17.51799712
 20
17.26175364
  0
VERTEX
  8
0
 62
7
 10
17.54321510
 20
17.22409882
  0
VERTEX
  8
0
 62
7
 10
17.56815778
 20
17.18624246
  0
VERTEX
  8
0
 62
7
 10
17.59245495
 20
17.14804059
  0
VERTEX
  8
0
 62
7
 10
17.61573637
 20
17.10934927
  0
VERTEX
  8
0
 62
7
 10
17.63763182
 20
17.07002453
  0
VERTEX
  8
0
 62
7
 10
17.65777108
 20
17.02992241
  0
VERTEX
  8
0
 62
7
 10
17.62536853
 20
17.00699138
  0
VERTEX
  8
0
 62
7
 10
17.56247468
 20
17.07115221
  0
VERTEX
  8
0
 62
7
 10
17.50375772
 20
17.14007328
  0
VERTEX
  8
0
 62
7
 10
17.44731906
 20
17.21083702
  0
VERTEX
  8
0
 62
7
 10
17.39126012
 20
17.28052586
  0
VERTEX
  8
0
 62
7
 10
17.34831409
 20
17.33749515
  0
VERTEX
  8
0
 62
7
 10
17.30043173
 20
17.40398491
  0
VERTEX
  8
0
 62
7
 10
17.25968805
 20
17.45972575
  0
VERTEX
  8
0
 62
7
 10
17.23815808
 20
17.48444828
  0
VERTEX
  8
0
 62
7
 10
17.18631400
 20
17.49591379
  0
VERTEX
  8
0
 62
7
 10
17.14530452
 20
17.47707759
  0
VERTEX
  8
0
 62
7
 10
17.10368750
 20
17.46315517
  0
VERTEX
  8
0
 62
7
 10
17.09100969
 20
17.42676239
  0
VERTEX
  8
0
 62
7
 10
17.08018299
 20
17.39006250
  0
VERTEX
  8
0
 62
7
 10
17.07100807
 20
17.35305550
  0
VERTEX
  8
0
 62
7
 10
17.06328557
 20
17.31574138
  0
VERTEX
  8
0
 62
7
 10
17.05681614
 20
17.27812015
  0
VERTEX
  8
0
 62
7
 10
17.05140042
 20
17.24019181
  0
VERTEX
  8
0
 62
7
 10
17.04683906
 20
17.20195636
  0
VERTEX
  8
0
 62
7
 10
17.04293272
 20
17.16341379
  0
VERTEX
  8
0
 62
7
 10
17.03930167
 20
17.13290253
  0
VERTEX
  8
0
 62
7
 10
17.03590795
 20
17.10220892
  0
VERTEX
  8
0
 62
7
 10
17.03306482
 20
17.07138094
  0
VERTEX
  8
0
 62
7
 10
17.03108554
 20
17.04046659
  0
VERTEX
  8
0
 62
7
 10
17.03028339
 20
17.00951386
  0
VERTEX
  8
0
 62
7
 10
17.03097162
 20
16.97857072
  0
VERTEX
  8
0
 62
7
 10
17.03346352
 20
16.94768516
  0
VERTEX
  8
0
 62
7
 10
17.03807234
 20
16.91690517
  0
VERTEX
  8
0
 62
7
 10
17.04325073
 20
16.89436283
  0
VERTEX
  8
0
 62
7
 10
17.04866645
 20
16.87169572
  0
VERTEX
  8
0
 62
7
 10
17.05463276
 20
16.84908619
  0
VERTEX
  8
0
 62
7
 10
17.06146293
 20
16.82671659
  0
VERTEX
  8
0
 62
7
 10
17.06947022
 20
16.80476928
  0
VERTEX
  8
0
 62
7
 10
17.07896790
 20
16.78342659
  0
VERTEX
  8
0
 62
7
 10
17.09026924
 20
16.76287087
  0
VERTEX
  8
0
 62
7
 10
17.10368750
 20
16.74328448
  0
VERTEX
  8
0
 62
7
 10
17.12469853
 20
16.71848518
  0
VERTEX
  8
0
 62
7
 10
17.14783597
 20
16.69537500
  0
VERTEX
  8
0
 62
7
 10
17.17340361
 20
16.67533594
  0
VERTEX
  8
0
 62
7
 10
17.20170521
 20
16.65975000
  0
VERTEX
  8
0
 62
7
 10
17.22612262
 20
16.65063421
  0
VERTEX
  8
0
 62
7
 10
17.25077735
 20
16.64348586
  0
VERTEX
  8
0
 62
7
 10
17.27567890
 20
16.63819937
  0
VERTEX
  8
0
 62
7
 10
17.30083676
 20
16.63466918
  0
VERTEX
  8
0
 62
7
 10
17.32626042
 20
16.63278972
  0
VERTEX
  8
0
 62
7
 10
17.35195937
 20
16.63245541
  0
VERTEX
  8
0
 62
7
 10
17.37794312
 20
16.63356070
  0
VERTEX
  8
0
 62
7
 10
17.40422114
 20
16.63600000
  0
VERTEX
  8
0
 62
7
 10
17.43362392
 20
16.63967255
  0
VERTEX
  8
0
 62
7
 10
17.46082434
 20
16.64326832
  0
VERTEX
  8
0
 62
7
 10
17.48908797
 20
16.64486786
  0
VERTEX
  8
0
 62
7
 10
17.52168038
 20
16.64255172
  0
VERTEX
  8
0
 62
7
 10
17.53416042
 20
16.63870003
  0
VERTEX
  8
0
 62
7
 10
17.55469048
 20
16.62955065
  0
VERTEX
  8
0
 62
7
 10
17.57795449
 20
16.61686948
  0
VERTEX
  8
0
 62
7
 10
17.59863643
 20
16.60242241
  0
VERTEX
  8
0
 62
7
 10
17.60316773
 20
16.60060533
  0
VERTEX
  8
0
 62
7
 10
17.60952166
 20
16.60109159
  0
VERTEX
  8
0
 62
7
 10
17.61686287
 20
16.60357408
  0
VERTEX
  8
0
 62
7
 10
17.62435595
 20
16.60774569
  0
VERTEX
  8
0
 62
7
 10
17.63116555
 20
16.61329930
  0
VERTEX
  8
0
 62
7
 10
17.63645628
 20
16.61992780
  0
VERTEX
  8
0
 62
7
 10
17.63939276
 20
16.62732408
  0
VERTEX
  8
0
 62
7
 10
17.63913962
 20
16.63518103
  0
VERTEX
  8
0
 62
7
 10
17.63249615
 20
16.65436114
  0
VERTEX
  8
0
 62
7
 10
17.62776075
 20
16.67376199
  0
VERTEX
  8
0
 62
7
 10
17.62494293
 20
16.69329719
  0
VERTEX
  8
0
 62
7
 10
17.62405218
 20
16.71288039
  0
VERTEX
  8
0
 62
7
 10
17.62509799
 20
16.73242519
  0
VERTEX
  8
0
 62
7
 10
17.62808984
 20
16.75184523
  0
VERTEX
  8
0
 62
7
 10
17.63303724
 20
16.77105413
  0
VERTEX
  8
0
 62
7
 10
17.63994968
 20
16.78996552
  0
VERTEX
  8
0
 62
7
 10
17.65473334
 20
16.82150849
  0
VERTEX
  8
0
 62
7
 10
17.67316229
 20
16.84698599
  0
VERTEX
  8
0
 62
7
 10
17.69645163
 20
16.86954593
  0
VERTEX
  8
0
 62
7
 10
17.72581644
 20
16.89233621
  0
SEQEND
  0
POLYLINE
  8
0
 62
7
 66
1
 70
1
  0
VERTEX
  8
0
 62
7
 10
18.15400000
 20
17.06200000
  0
VERTEX
  8
0
 62
7
 10
18.26196875
 20
17.06615625
  0
VERTEX
  8
0
 62
7
 10
18.36975000
 20
17.07350000
  0
VERTEX
  8
0
 62
7
 10
18.47715625
 20
17.08534375
  0
VERTEX
  8
0
 62
7
 10
18.58400000
 20
17.10300000
  0
VERTEX
  8
0
 62
7
 10
18.66071680
 20
17.11898438
  0
VERTEX
  8
0
 62
7
 10
18.73704688
 20
17.13637500
  0
VERTEX
  8
0
 62
7
 10
18.81288477
 20
17.15545313
  0
VERTEX
  8
0
 62
7
 10
18.88812500
 20
17.17650000
  0
VERTEX
  8
0
 62
7
 10
18.96266211
 20
17.19979688
  0
VERTEX
  8
0
 62
7
 10
19.03639063
 20
17.22562500
  0
VERTEX
  8
0
 62
7
 10
19.10920508
 20
17.25426563
  0
VERTEX
  8
0
 62
7
 10
19.18100000
 20
17.28600000
  0
VERTEX
  8
0
 62
7
 10
19.20400000
 20
17.25300000
  0
VERTEX
  8
0
 62
7
 10
19.13087305
 20
17.21995703
  0
VERTEX
  8
0
 62
7
 10
19.05698438
 20
17.18909375
  0
VERTEX
  8
0
 62
7
 10
18.98232227
 20
17.16043359
  0
VERTEX
  8
0
 62
7
 10
18.90687500
 20
17.13400000
  0
VERTEX
  8
0
 62
7
 10
18.83063086
 20
17.10981641
  0
VERTEX
  8
0
 62
7
 10
18.75357813
 20
17.08790625
  0
VERTEX
  8
0
 62
7
 10
18.67570508
 20
17.06829297
  0
VERTEX
  8
0
 62
7
 10
18.59700000
 20
17.05100000
  0
VERTEX
  8
0
 62
7
 10
18.48189063
 20
17.03035938
  0
VERTEX
  8
0
 62
7
 10
18.36612500
 20
17.01487500
  0
VERTEX
  8
0
 62
7
 10
18.24979688
 20
17.00445313
  0
VERTEX
  8
0
 62
7
 10
18.13300000
 20
16.99900000
  0
VERTEX
  8
0
 62
7
 10
18.13800000
 20
16.96900000
  0
VERTEX
  8
0
 62
7
 10
18.14512500
 20
16.94750000
  0
VERTEX
  8
0
 62
7
 10
18.14700000
 20
16.92900000
  0
VERTEX
  8
0
 62
7
 10
18.14577148
 20
16.91251367
  0
VERTEX
  8
0
 62
7
 10
18.14223438
 20
16.89685938
  0
VERTEX
  8
0
 62
7
 10
18.13661133
 20
16.88211914
  0
VERTEX
  8
0
 62
7
 10
18.12912500
 20
16.86837500
  0
VERTEX
  8
0
 62
7
 10
18.11999805
 20
16.85570898
  0
VERTEX
  8
0
 62
7
 10
18.10945313
 20
16.84420313
  0
VERTEX
  8
0
 62
7
 10
18.09771289
 20
16.83393945
  0
VERTEX
  8
0
 62
7
 10
18.08500000
 20
16.82500000
  0
VERTEX
  8
0
 62
7
 10
18.14033594
 20
16.78925391
  0
VERTEX
  8
0
 62
7
 10
18.20087500
 20
16.75784375
  0
VERTEX
  8
0
 62
7
 10
18.26478906
 20
16.73088672
  0
VERTEX
  8
0
 62
7
 10
18.33025000
 20
16.70850000
  0
VERTEX
  8
0
 62
7
 10
18.39542969
 20
16.69080078
  0
VERTEX
  8
0
 62
7
 10
18.45850000
 20
16.67790625
  0
VERTEX
  8
0
 62
7
 10
18.51763281
 20
16.66993359
  0
VERTEX
  8
0
 62
7
 10
18.57100000
 20
16.66700000
  0
VERTEX
  8
0
 62
7
 10
18.64924023
 20
16.66951563
  0
VERTEX
  8
0
 62
7
 10
18.72685938
 20
16.67793750
  0
VERTEX
  8
0
 62
7
 10
18.80333008
 20
16.69245313
  0
VERTEX
  8
0
 62
7
 10
18.87812500
 20
16.71325000
  0
VERTEX
  8
0
 62
7
 10
18.95071680
 20
16.74051563
  0
VERTEX
  8
0
 62
7
 10
19.02057813
 20
16.77443750
  0
VERTEX
  8
0
 62
7
 10
19.08718164
 20
16.81520313
  0
VERTEX
  8
0
 62
7
 10
19.15000000
 20
16.86300000
  0
VERTEX
  8
0
 62
7
 10
19.19490625
 20
16.90601563
  0
VERTEX
  8
0
 62
7
 10
19.23625000
 20
16.95287500
  0
VERTEX
  8
0
 62
7
 10
19.27571875
 20
17.00179688
  0
VERTEX
  8
0
 62
7
 10
19.31500000
 20
17.05100000
  0
VERTEX
  8
0
 62
7
 10
19.33664063
 20
17.08020313
  0
VERTEX
  8
0
 62
7
 10
19.35762500
 20
17.10987500
  0
VERTEX
  8
0
 62
7
 10
19.37954688
 20
17.13860938
  0
VERTEX
  8
0
 62
7
 10
19.40400000
 20
17.16500000
  0
VERTEX
  8
0
 62
7
 10
19.43069531
 20
17.18946094
  0
VERTEX
  8
0
 62
7
 10
19.45893750
 20
17.21181250
  0
VERTEX
  8
0
 62
7
 10
19.48858594
 20
17.23200781
  0
VERTEX
  8
0
 62
7
 10
19.51950000
 20
17.25000000
  0
VERTEX
  8
0
 62
7
 10
19.55153906
 20
17.26574219
  0
VERTEX
  8
0
 62
7
 10
19.58456250
 20
17.27918750
  0
VERTEX
  8
0
 62
7
 10
19.61842969
 20
17.29028906
  0
VERTEX
  8
0
 62
7
 10
19.65300000
 20
17.29900000
  0
VERTEX
  8
0
 62
7
 10
19.60367188
 20
17.33104688
  0
VERTEX
  8
0
 62
7
 10
19.55312500
 20
17.36112500
  0
VERTEX
  8
0
 62
7
 10
19.50126563
 20
17.38914063
  0
VERTEX
  8
0
 62
7
 10
19.44800000
 20
17.41500000
  0
VERTEX
  8
0
 62
7
 10
19.37022461
 20
17.44958789
  0
VERTEX
  8
0
 62
7
 10
19.29079688
 20
17.48020313
  0
VERTEX
  8
0
 62
7
 10
19.20993945
 20
17.50624805
  0
VERTEX
  8
0
 62
7
 10
19.12787500
 20
17.52712500
  0
VERTEX
  8
0
 62
7
 10
19.04482617
 20
17.54223633
  0
VERTEX
  8
0
 62
7
 10
18.96101563
 20
17.55098438
  0
VERTEX
  8
0
 62
7
 10
18.87666602
 20
17.55277148
  0
VERTEX
  8
0
 62
7
 10
18.79200000
 20
17.54700000
  0
VERTEX
  8
0
 62
7
 10
18.71278125
 20
17.53469141
  0
VERTEX
  8
0
 62
7
 10
18.63506250
 20
17.51659375
  0
VERTEX
  8
0
 62
7
 10
18.55912500
 20
17.49282422
  0
VERTEX
  8
0
 62
7
 10
18.48525000
 20
17.46350000
  0
VERTEX
  8
0
 62
7
 10
18.41371875
 20
17.42873828
  0
VERTEX
  8
0
 62
7
 10
18.34481250
 20
17.38865625
  0
VERTEX
  8
0
 62
7
 10
18.27881250
 20
17.34337109
  0
VERTEX
  8
0
 62
7
 10
18.21600000
 20
17.29300000
  0
VERTEX
  8
0
 62
7
 10
18.20915625
 20
17.23857813
  0
VERTEX
  8
0
 62
7
 10
18.19725000
 20
17.18312500
  0
VERTEX
  8
0
 62
7
 10
18.18196875
 20
17.13085938
  0
VERTEX
  8
0
 62
7
 10
18.16500000
 20
17.08600000
  0
VERTEX
  8
0
 62
7
 10
18.15400000
 20
17.06300000
  0
VERTEX
  8
0
 62
7
 10
18.15400000
 20
17.06200000
  0
SEQEND
  0
POLYLINE
  8
0
 62
7
 66
1
 70
1
  0
VERTEX
  8
0
 62
7
 10
18.18657121
 20
18.29031034
  0
VERTEX
  8
0
 62
7
 10
18.18083274
 20
18.30977197
  0
VERTEX
  8
0
 62
7
 10
18.17590116
 20
18.32837945
  0
VERTEX
  8
0
 62
7
 10
18.17197583
 20
18.34635350
  0
VERTEX
  8
0
 62
7
 10
18.16925610
 20
18.36391487
  0
VERTEX
  8
0
 62
7
 10
18.16794133
 20
18.38128430
  0
VERTEX
  8
0
 62
7
 10
18.16823087
 20
18.39868252
  0
VERTEX
  8
0
 62
7
 10
18.17032406
 20
18.41633026
  0
VERTEX
  8
0
 62
7
 10
18.17442026
 20
18.43444828
  0
VERTEX
  8
0
 62
7
 10
18.17987711
 20
18.45397548
  0
VERTEX
  8
0
 62
7
 10
18.18709016
 20
18.47258136
  0
VERTEX
  8
0
 62
7
 10
18.19599295
 20
18.49018912
  0
VERTEX
  8
0
 62
7
 10
18.20651903
 20
18.50672198
  0
VERTEX
  8
0
 62
7
 10
18.21860196
 20
18.52210318
  0
VERTEX
  8
0
 62
7
 10
18.23217527
 20
18.53625593
  0
VERTEX
  8
0
 62
7
 10
18.24717252
 20
18.54910345
  0
VERTEX
  8
0
 62
7
 10
18.26352727
 20
18.56056897
  0
VERTEX
  8
0
 62
7
 10
18.26858384
 20
18.56678159
  0
VERTEX
  8
0
 62
7
 10
18.27071658
 20
18.57449138
  0
VERTEX
  8
0
 62
7
 10
18.27041914
 20
18.58296895
  0
VERTEX
  8
0
 62
7
 10
18.26818513
 20
18.59148491
  0
VERTEX
  8
0
 62
7
 10
18.26450820
 20
18.59930987
  0
VERTEX
  8
0
 62
7
 10
18.25988198
 20
18.60571444
  0
VERTEX
  8
0
 62
7
 10
18.25480010
 20
18.60996922
  0
VERTEX
  8
0
 62
7
 10
18.24975618
 20
18.61134483
  0
VERTEX
  8
0
 62
7
 10
18.22565679
 20
18.61153677
  0
VERTEX
  8
0
 62
7
 10
18.19973475
 20
18.61472306
  0
VERTEX
  8
0
 62
7
 10
18.17776177
 20
18.61929135
  0
VERTEX
  8
0
 62
7
 10
18.16550956
 20
18.62362931
  0
VERTEX
  8
0
 62
7
 10
18.13776488
 20
18.64091716
  0
VERTEX
  8
0
 62
7
 10
18.11548812
 20
18.65874246
  0
VERTEX
  8
0
 62
7
 10
18.09533779
 20
18.67764265
  0
VERTEX
  8
0
 62
7
 10
18.07397236
 20
18.69815517
  0
VERTEX
  8
0
 62
7
 10
18.05448653
 20
18.71514391
  0
VERTEX
  8
0
 62
7
 10
18.03427924
 20
18.73102896
  0
VERTEX
  8
0
 62
7
 10
18.01331251
 20
18.74570476
  0
VERTEX
  8
0
 62
7
 10
17.99154837
 20
18.75906573
  0
VERTEX
  8
0
 62
7
 10
17.96894886
 20
18.77100631
  0
VERTEX
  8
0
 62
7
 10
17.94547600
 20
18.78142093
  0
VERTEX
  8
0
 62
7
 10
17.92109182
 20
18.79020402
  0
VERTEX
  8
0
 62
7
 10
17.89575834
 20
18.79725000
  0
VERTEX
  8
0
 62
7
 10
17.86414054
 20
18.80112729
  0
VERTEX
  8
0
 62
7
 10
17.83176331
 20
18.80001401
  0
VERTEX
  8
0
 62
7
 10
17.79938607
 20
18.79506183
  0
VERTEX
  8
0
 62
7
 10
17.76776827
 20
18.78742241
  0
VERTEX
  8
0
 62
7
 10
17.74550418
 20
18.77956386
  0
VERTEX
  8
0
 62
7
 10
17.72422735
 20
18.76969949
  0
VERTEX
  8
0
 62
7
 10
17.70386184
 20
18.75812680
  0
VERTEX
  8
0
 62
7
 10
17.68433171
 20
18.74514332
  0
VERTEX
  8
0
 62
7
 10
17.66556101
 20
18.73104656
  0
VERTEX
  8
0
 62
7
 10
17.64747381
 20
18.71613402
  0
VERTEX
  8
0
 62
7
 10
17.62999415
 20
18.70070324
  0
VERTEX
  8
0
 62
7
 10
17.61304610
 20
18.68505172
  0
VERTEX
  8
0
 62
7
 10
17.57118859
 20
18.63985506
  0
VERTEX
  8
0
 62
7
 10
17.53457118
 20
18.59005172
  0
VERTEX
  8
0
 62
7
 10
17.50175094
 20
18.53717726
  0
VERTEX
  8
0
 62
7
 10
17.47128495
 20
18.48276724
  0
VERTEX
  8
0
 62
7
 10
17.45183235
 20
18.44930802
  0
VERTEX
  8
0
 62
7
 10
17.43307273
 20
18.41579122
  0
VERTEX
  8
0
 62
7
 10
17.41516747
 20
18.38208247
  0
VERTEX
  8
0
 62
7
 10
17.39827796
 20
18.34804741
  0
VERTEX
  8
0
 62
7
 10
17.38256557
 20
18.31355169
  0
VERTEX
  8
0
 62
7
 10
17.36819169
 20
18.27846094
  0
VERTEX
  8
0
 62
7
 10
17.35531768
 20
18.24264079
  0
VERTEX
  8
0
 62
7
 10
17.34410495
 20
18.20595690
  0
VERTEX
  8
0
 62
7
 10
17.37012824
 20
18.16982004
  0
VERTEX
  8
0
 62
7
 10
17.39189871
 20
18.13061207
  0
VERTEX
  8
0
 62
7
 10
17.44131259
 20
18.10931897
  0
VERTEX
  8
0
 62
7
 10
17.45168837
 20
18.11050423
  0
VERTEX
  8
0
 62
7
 10
17.47313291
 20
18.11634415
  0
VERTEX
  8
0
 62
7
 10
17.50296920
 20
18.12565829
  0
VERTEX
  8
0
 62
7
 10
17.53852024
 20
18.13726616
  0
VERTEX
  8
0
 62
7
 10
17.57710902
 20
18.14998732
  0
VERTEX
  8
0
 62
7
 10
17.61605853
 20
18.16264130
  0
VERTEX
  8
0
 62
7
 10
17.65269176
 20
18.17404763
  0
VERTEX
  8
0
 62
7
 10
17.68433171
 20
18.18302586
  0
VERTEX
  8
0
 62
7
 10
17.72781093
 20
18.19478090
  0
VERTEX
  8
0
 62
7
 10
17.77137559
 20
18.20704459
  0
VERTEX
  8
0
 62
7
 10
17.81503517
 20
18.21940425
  0
VERTEX
  8
0
 62
7
 10
17.85879918
 20
18.23144720
  0
VERTEX
  8
0
 62
7
 10
17.90267711
 20
18.24276076
  0
VERTEX
  8
0
 62
7
 10
17.94667844
 20
18.25293225
  0
VERTEX
  8
0
 62
7
 10
17.99081267
 20
18.26154898
  0
VERTEX
  8
0
 62
7
 10
18.03508930
 20
18.26819828
  0
VERTEX
  8
0
 62
7
 10
18.04643019
 20
18.23052586
  0
VERTEX
  8
0
 62
7
 10
18.00687472
 20
18.20966463
  0
VERTEX
  8
0
 62
7
 10
17.96617060
 20
18.19047333
  0
VERTEX
  8
0
 62
7
 10
17.92461211
 20
18.17262564
  0
VERTEX
  8
0
 62
7
 10
17.88249355
 20
18.15579526
  0
VERTEX
  8
0
 62
7
 10
17.84010918
 20
18.13965588
  0
VERTEX
  8
0
 62
7
 10
17.79775329
 20
18.12388120
  0
VERTEX
  8
0
 62
7
 10
17.75572016
 20
18.10814490
  0
VERTEX
  8
0
 62
7
 10
17.71430407
 20
18.09212069
  0
VERTEX
  8
0
 62
7
 10
17.68326534
 20
18.08117662
  0
VERTEX
  8
0
 62
7
 10
17.64673969
 20
18.06906169
  0
VERTEX
  8
0
 62
7
 10
17.60759399
 20
18.05644770
  0
VERTEX
  8
0
 62
7
 10
17.56869511
 20
18.04400647
  0
VERTEX
  8
0
 62
7
 10
17.53290992
 20
18.03240979
  0
VERTEX
  8
0
 62
7
 10
17.50310527
 20
18.02232947
  0
VERTEX
  8
0
 62
7
 10
17.48214803
 20
18.01443733
  0
VERTEX
  8
0
 62
7
 10
17.47290508
 20
18.00940517
  0
VERTEX
  8
0
 62
7
 10
17.44617298
 20
17.96436207
  0
VERTEX
  8
0
 62
7
 10
17.45113462
 20
17.91911422
  0
VERTEX
  8
0
 62
7
 10
17.45184342
 20
17.87509483
  0
VERTEX
  8
0
 62
7
 10
17.51387658
 20
17.83014130
  0
VERTEX
  8
0
 62
7
 10
17.57932720
 20
17.79125323
  0
VERTEX
  8
0
 62
7
 10
17.64766367
 20
17.75681829
  0
VERTEX
  8
0
 62
7
 10
17.71835439
 20
17.72522414
  0
VERTEX
  8
0
 62
7
 10
17.74611964
 20
17.71230144
  0
VERTEX
  8
0
 62
7
 10
17.77416018
 20
17.69954189
  0
VERTEX
  8
0
 62
7
 10
17.80252349
 20
17.68726221
  0
VERTEX
  8
0
 62
7
 10
17.83125702
 20
17.67577909
  0
VERTEX
  8
0
 62
7
 10
17.86040823
 20
17.66540926
  0
VERTEX
  8
0
 62
7
 10
17.89002461
 20
17.65646942
  0
VERTEX
  8
0
 62
7
 10
17.92015360
 20
17.64927628
  0
VERTEX
  8
0
 62
7
 10
17.95084267
 20
17.64414655
  0
VERTEX
  8
0
 62
7
 10
17.97403075
 20
17.64201436
  0
VERTEX
  8
0
 62
7
 10
17.99737071
 20
17.64014130
  0
VERTEX
  8
0
 62
7
 10
18.02078661
 20
17.63886326
  0
VERTEX
  8
0
 62
7
 10
18.04420252
 20
17.63851616
  0
VERTEX
  8
0
 62
7
 10
18.06754248
 20
17.63943590
  0
VERTEX
  8
0
 62
7
 10
18.09073055
 20
17.64195838
  0
VERTEX
  8
0
 62
7
 10
18.11369079
 20
17.64641950
  0
VERTEX
  8
0
 62
7
 10
18.13634726
 20
17.65315517
  0
VERTEX
  8
0
 62
7
 10
18.16654745
 20
17.66526051
  0
VERTEX
  8
0
 62
7
 10
18.19568443
 20
17.67997629
  0
VERTEX
  8
0
 62
7
 10
18.22269499
 20
17.69807031
  0
VERTEX
  8
0
 62
7
 10
18.24651593
 20
17.72031034
  0
VERTEX
  8
0
 62
7
 10
18.27689332
 20
17.76189844
  0
VERTEX
  8
0
 62
7
 10
18.30058768
 20
17.80671121
  0
VERTEX
  8
0
 62
7
 10
18.31851034
 20
17.85459510
  0
VERTEX
  8
0
 62
7
 10
18.33157262
 20
17.90539655
  0
VERTEX
  8
0
 62
7
 10
18.33705321
 20
17.93470016
  0
VERTEX
  8
0
 62
7
 10
18.34200219
 20
17.96170043
  0
VERTEX
  8
0
 62
7
 10
18.34922948
 20
17.98900781
  0
VERTEX
  8
0
 62
7
 10
18.36154498
 20
18.01923276
  0
VERTEX
  8
0
 62
7
 10
18.36888618
 20
18.02985372
  0
VERTEX
  8
0
 62
7
 10
18.38382173
 20
18.04646336
  0
VERTEX
  8
0
 62
7
 10
18.40301011
 20
18.06460857
  0
VERTEX
  8
0
 62
7
 10
18.42310982
 20
18.07983621
  0
VERTEX
  8
0
 62
7
 10
18.42622983
 20
18.08376148
  0
VERTEX
  8
0
 62
7
 10
18.42771706
 20
18.09004768
  0
VERTEX
  8
0
 62
7
 10
18.42760947
 20
18.09783105
  0
VERTEX
  8
0
 62
7
 10
18.42594504
 20
18.10624784
  0
VERTEX
  8
0
 62
7
 10
18.42276175
 20
18.11443430
  0
VERTEX
  8
0
 62
7
 10
18.41809755
 20
18.12152667
  0
VERTEX
  8
0
 62
7
 10
18.41199043
 20
18.12666120
  0
VERTEX
  8
0
 62
7
 10
18.40447835
 20
18.12897414
  0
VERTEX
  8
0
 62
7
 10
18.38425682
 20
18.12843029
  0
VERTEX
  8
0
 62
7
 10
18.36436754
 20
18.12984429
  0
VERTEX
  8
0
 62
7
 10
18.34491494
 20
18.13317773
  0
VERTEX
  8
0
 62
7
 10
18.32600343
 20
18.13839224
  0
VERTEX
  8
0
 62
7
 10
18.30773744
 20
18.14544942
  0
VERTEX
  8
0
 62
7
 10
18.29022140
 20
18.15431088
  0
VERTEX
  8
0
 62
7
 10
18.27355972
 20
18.16493824
  0
VERTEX
  8
0
 62
7
 10
18.25785682
 20
18.17729310
  0
VERTEX
  8
0
 62
7
 10
18.23236513
 20
18.20128623
  0
VERTEX
  8
0
 62
7
 10
18.21370835
 20
18.22673815
  0
VERTEX
  8
0
 62
7
 10
18.19930440
 20
18.25572185
  0
VERTEX
  8
0
 62
7
 10
18.18657121
 20
18.29031034
  0
SEQEND
  0
POLYLINE
  8
0
 62
7
 66
1
 70
1
  0
VERTEX
  8
0
 62
7
 10
18.20000000
 20
17.39500000
  0
VERTEX
  8
0
 62
7
 10
18.37748438
 20
17.54618750
  0
VERTEX
  8
0
 62
7
 10
18.52187500
 20
17.67525000
  0
VERTEX
  8
0
 62
7
 10
18.64957813
 20
17.79718750
  0
VERTEX
  8
0
 62
7
 10
18.77700000
 20
17.92700000
  0
VERTEX
  8
0
 62
7
 10
19.02500000
 20
18.20100000
  0
VERTEX
  8
0
 62
7
 10
19.03277759
 20
18.20667505
  0
VERTEX
  8
0
 62
7
 10
19.03931445
 20
18.20580664
  0
VERTEX
  8
0
 62
7
 10
19.04472925
 20
18.19911694
  0
VERTEX
  8
0
 62
7
 10
19.04914063
 20
18.18732813
  0
VERTEX
  8
0
 62
7
 10
19.05266724
 20
18.17116235
  0
VERTEX
  8
0
 62
7
 10
19.05542773
 20
18.15134180
  0
VERTEX
  8
0
 62
7
 10
19.05754077
 20
18.12858862
  0
VERTEX
  8
0
 62
7
 10
19.05912500
 20
18.10362500
  0
VERTEX
  8
0
 62
7
 10
19.06029907
 20
18.07717310
  0
VERTEX
  8
0
 62
7
 10
19.06118164
 20
18.04995508
  0
VERTEX
  8
0
 62
7
 10
19.06189136
 20
18.02269312
  0
VERTEX
  8
0
 62
7
 10
19.06254688
 20
17.99610938
  0
VERTEX
  8
0
 62
7
 10
19.06326685
 20
17.97092603
  0
VERTEX
  8
0
 62
7
 10
19.06416992
 20
17.94786523
  0
VERTEX
  8
0
 62
7
 10
19.06537476
 20
17.92764917
  0
VERTEX
  8
0
 62
7
 10
19.06700000
 20
17.91100000
  0
VERTEX
  8
0
 62
7
 10
19.07325513
 20
17.87136206
  0
VERTEX
  8
0
 62
7
 10
19.08329102
 20
17.83347461
  0
VERTEX
  8
0
 62
7
 10
19.09695093
 20
17.79737720
  0
VERTEX
  8
0
 62
7
 10
19.11407813
 20
17.76310938
  0
VERTEX
  8
0
 62
7
 10
19.13451587
 20
17.73071069
  0
VERTEX
  8
0
 62
7
 10
19.15810742
 20
17.70022070
  0
VERTEX
  8
0
 62
7
 10
19.18469604
 20
17.67167896
  0
VERTEX
  8
0
 62
7
 10
19.21412500
 20
17.64512500
  0
VERTEX
  8
0
 62
7
 10
19.24623755
 20
17.62059839
  0
VERTEX
  8
0
 62
7
 10
19.28087695
 20
17.59813867
  0
VERTEX
  8
0
 62
7
 10
19.31788647
 20
17.57778540
  0
VERTEX
  8
0
 62
7
 10
19.35710938
 20
17.55957813
  0
VERTEX
  8
0
 62
7
 10
19.39838892
 20
17.54355640
  0
VERTEX
  8
0
 62
7
 10
19.44156836
 20
17.52975977
  0
VERTEX
  8
0
 62
7
 10
19.48649097
 20
17.51822778
  0
VERTEX
  8
0
 62
7
 10
19.53300000
 20
17.50900000
  0
VERTEX
  8
0
 62
7
 10
19.61381445
 20
17.49380469
  0
VERTEX
  8
0
 62
7
 10
19.68601563
 20
17.47781250
  0
VERTEX
  8
0
 62
7
 10
19.75186523
 20
17.46041406
  0
VERTEX
  8
0
 62
7
 10
19.81362500
 20
17.44100000
  0
VERTEX
  8
0
 62
7
 10
19.87355664
 20
17.41896094
  0
VERTEX
  8
0
 62
7
 10
19.93392188
 20
17.39368750
  0
VERTEX
  8
0
 62
7
 10
19.99698242
 20
17.36457031
  0
VERTEX
  8
0
 62
7
 10
20.06500000
 20
17.33100000
  0
VERTEX
  8
0
 62
7
 10
20.07076953
 20
17.35662109
  0
VERTEX
  8
0
 62
7
 10
20.07778125
 20
17.38690625
  0
VERTEX
  8
0
 62
7
 10
20.08521484
 20
17.42173828
  0
VERTEX
  8
0
 62
7
 10
20.09225000
 20
17.46100000
  0
VERTEX
  8
0
 62
7
 10
20.09806641
 20
17.50457422
  0
VERTEX
  8
0
 62
7
 10
20.10184375
 20
17.55234375
  0
VERTEX
  8
0
 62
7
 10
20.10276172
 20
17.60419141
  0
VERTEX
  8
0
 62
7
 10
20.10000000
 20
17.66000000
  0
VERTEX
  8
0
 62
7
 10
20.09301807
 20
17.72097168
  0
VERTEX
  8
0
 62
7
 10
20.08155078
 20
17.78069531
  0
VERTEX
  8
0
 62
7
 10
20.06575342
 20
17.83888379
  0
VERTEX
  8
0
 62
7
 10
20.04578125
 20
17.89525000
  0
VERTEX
  8
0
 62
7
 10
20.02178955
 20
17.94950684
  0
VERTEX
  8
0
 62
7
 10
19.99393359
 20
18.00136719
  0
VERTEX
  8
0
 62
7
 10
19.96236865
 20
18.05054395
  0
VERTEX
  8
0
 62
7
 10
19.92725000
 20
18.09675000
  0
VERTEX
  8
0
 62
7
 10
19.88873291
 20
18.13969824
  0
VERTEX
  8
0
 62
7
 10
19.84697266
 20
18.17910156
  0
VERTEX
  8
0
 62
7
 10
19.80212451
 20
18.21467285
  0
VERTEX
  8
0
 62
7
 10
19.75434375
 20
18.24612500
  0
VERTEX
  8
0
 62
7
 10
19.70378564
 20
18.27317090
  0
VERTEX
  8
0
 62
7
 10
19.65060547
 20
18.29552344
  0
VERTEX
  8
0
 62
7
 10
19.59495850
 20
18.31289551
  0
VERTEX
  8
0
 62
7
 10
19.53700000
 20
18.32500000
  0
VERTEX
  8
0
 62
7
 10
19.45943750
 20
18.33214063
  0
VERTEX
  8
0
 62
7
 10
19.38000000
 20
18.33562500
  0
VERTEX
  8
0
 62
7
 10
19.29906250
 20
18.33554688
  0
VERTEX
  8
0
 62
7
 10
19.21700000
 20
18.33200000
  0
VERTEX
  8
0
 62
7
 10
19.14700000
 20
18.32300000
  0
VERTEX
  8
0
 62
7
 10
19.13500000
 20
18.33339063
  0
VERTEX
  8
0
 62
7
 10
19.13050000
 20
18.34837500
  0
VERTEX
  8
0
 62
7
 10
19.13350000
 20
18.36392188
  0
VERTEX
  8
0
 62
7
 10
19.14400000
 20
18.37600000
  0
VERTEX
  8
0
 62
7
 10
19.18463477
 20
18.39620313
  0
VERTEX
  8
0
 62
7
 10
19.22326563
 20
18.41162500
  0
VERTEX
  8
0
 62
7
 10
19.26098242
 20
18.42310938
  0
VERTEX
  8
0
 62
7
 10
19.29887500
 20
18.43150000
  0
VERTEX
  8
0
 62
7
 10
19.33803320
 20
18.43764063
  0
VERTEX
  8
0
 62
7
 10
19.37954688
 20
18.44237500
  0
VERTEX
  8
0
 62
7
 10
19.42450586
 20
18.44654688
  0
VERTEX
  8
0
 62
7
 10
19.47400000
 20
18.45100000
  0
VERTEX
  8
0
 62
7
 10
19.52994727
 20
18.45641797
  0
VERTEX
  8
0
 62
7
 10
19.58576563
 20
18.46321875
  0
VERTEX
  8
0
 62
7
 10
19.64104492
 20
18.47184766
  0
VERTEX
  8
0
 62
7
 10
19.69537500
 20
18.48275000
  0
VERTEX
  8
0
 62
7
 10
19.74834570
 20
18.49637109
  0
VERTEX
  8
0
 62
7
 10
19.79954688
 20
18.51315625
  0
VERTEX
  8
0
 62
7
 10
19.84856836
 20
18.53355078
  0
VERTEX
  8
0
 62
7
 10
19.89500000
 20
18.55800000
  0
VERTEX
  8
0
 62
7
 10
19.94889453
 20
18.59392188
  0
VERTEX
  8
0
 62
7
 10
19.99746875
 20
18.63387500
  0
VERTEX
  8
0
 62
7
 10
20.04093359
 20
18.67851563
  0
VERTEX
  8
0
 62
7
 10
20.07950000
 20
18.72850000
  0
VERTEX
  8
0
 62
7
 10
20.11337891
 20
18.78448438
  0
VERTEX
  8
0
 62
7
 10
20.14278125
 20
18.84712500
  0
VERTEX
  8
0
 62
7
 10
20.16791797
 20
18.91707813
  0
VERTEX
  8
0
 62
7
 10
20.18900000
 20
18.99500000
  0
VERTEX
  8
0
 62
7
 10
20.19801758
 20
19.03214990
  0
VERTEX
  8
0
 62
7
 10
20.20789063
 20
19.06888672
  0
VERTEX
  8
0
 62
7
 10
20.21872461
 20
19.10507861
  0
VERTEX
  8
0
 62
7
 10
20.23062500
 20
19.14059375
  0
VERTEX
  8
0
 62
7
 10
20.24369727
 20
19.17530029
  0
VERTEX
  8
0
 62
7
 10
20.25804688
 20
19.20906641
  0
VERTEX
  8
0
 62
7
 10
20.27377930
 20
19.24176025
  0
VERTEX
  8
0
 62
7
 10
20.29100000
 20
19.27325000
  0
VERTEX
  8
0
 62
7
 10
20.30981445
 20
19.30340381
  0
VERTEX
  8
0
 62
7
 10
20.33032813
 20
19.33208984
  0
VERTEX
  8
0
 62
7
 10
20.35264648
 20
19.35917627
  0
VERTEX
  8
0
 62
7
 10
20.37687500
 20
19.38453125
  0
VERTEX
  8
0
 62
7
 10
20.40311914
 20
19.40802295
  0
VERTEX
  8
0
 62
7
 10
20.43148438
 20
19.42951953
  0
VERTEX
  8
0
 62
7
 10
20.46207617
 20
19.44888916
  0
VERTEX
  8
0
 62
7
 10
20.49500000
 20
19.46600000
  0
VERTEX
  8
0
 62
7
 10
20.43420508
 20
19.50060742
  0
VERTEX
  8
0
 62
7
 10
20.36807813
 20
19.52948438
  0
VERTEX
  8
0
 62
7
 10
20.29775586
 20
19.55271289
  0
VERTEX
  8
0
 62
7
 10
20.22437500
 20
19.57037500
  0
VERTEX
  8
0
 62
7
 10
20.14907227
 20
19.58255273
  0
VERTEX
  8
0
 62
7
 10
20.07298438
 20
19.58932813
  0
VERTEX
  8
0
 62
7
 10
19.99724805
 20
19.59078320
  0
VERTEX
  8
0
 62
7
 10
19.92300000
 20
19.58700000
  0
VERTEX
  8
0
 62
7
 10
19.87914038
 20
19.58200488
  0
VERTEX
  8
0
 62
7
 10
19.83645117
 20
19.57492969
  0
VERTEX
  8
0
 62
7
 10
19.79495435
 20
19.56582715
  0
VERTEX
  8
0
 62
7
 10
19.75467188
 20
19.55475000
  0
VERTEX
  8
0
 62
7
 10
19.71562573
 20
19.54175098
  0
VERTEX
  8
0
 62
7
 10
19.67783789
 20
19.52688281
  0
VERTEX
  8
0
 62
7
 10
19.64133032
 20
19.51019824
  0
VERTEX
  8
0
 62
7
 10
19.60612500
 20
19.49175000
  0
VERTEX
  8
0
 62
7
 10
19.57224390
 20
19.47159082
  0
VERTEX
  8
0
 62
7
 10
19.53970898
 20
19.44977344
  0
VERTEX
  8
0
 62
7
 10
19.50854224
 20
19.42635059
  0
VERTEX
  8
0
 62
7
 10
19.47876563
 20
19.40137500
  0
VERTEX
  8
0
 62
7
 10
19.45040112
 20
19.37489941
  0
VERTEX
  8
0
 62
7
 10
19.42347070
 20
19.34697656
  0
VERTEX
  8
0
 62
7
 10
19.39799634
 20
19.31765918
  0
VERTEX
  8
0
 62
7
 10
19.37400000
 20
19.28700000
  0
VERTEX
  8
0
 62
7
 10
19.33961523
 20
19.23467383
  0
VERTEX
  8
0
 62
7
 10
19.30854688
 20
19.17607813
  0
VERTEX
  8
0
 62
7
 10
19.28092383
 20
19.11253711
  0
VERTEX
  8
0
 62
7
 10
19.25687500
 20
19.04537500
  0
VERTEX
  8
0
 62
7
 10
19.23652930
 20
18.97591602
  0
VERTEX
  8
0
 62
7
 10
19.22001563
 20
18.90548438
  0
VERTEX
  8
0
 62
7
 10
19.20746289
 20
18.83540430
  0
VERTEX
  8
0
 62
7
 10
19.19900000
 20
18.76700000
  0
VERTEX
  8
0
 62
7
 10
19.19309961
 20
18.71609180
  0
VERTEX
  8
0
 62
7
 10
19.18554688
 20
18.66835938
  0
VERTEX
  8
0
 62
7
 10
19.17581445
 20
18.62379102
  0
VERTEX
  8
0
 62
7
 10
19.16337500
 20
18.58237500
  0
VERTEX
  8
0
 62
7
 10
19.14770117
 20
18.54409961
  0
VERTEX
  8
0
 62
7
 10
19.12826563
 20
18.50895313
  0
VERTEX
  8
0
 62
7
 10
19.10454102
 20
18.47692383
  0
VERTEX
  8
0
 62
7
 10
19.07600000
 20
18.44800000
  0
VERTEX
  8
0
 62
7
 10
19.07153613
 20
18.44259717
  0
VERTEX
  8
0
 62
7
 10
19.06785156
 20
18.44007422
  0
VERTEX
  8
0
 62
7
 10
19.06488184
 20
18.44014697
  0
VERTEX
  8
0
 62
7
 10
19.06256250
 20
18.44253125
  0
VERTEX
  8
0
 62
7
 10
19.06082910
 20
18.44694287
  0
VERTEX
  8
0
 62
7
 10
19.05961719
 20
18.45309766
  0
VERTEX
  8
0
 62
7
 10
19.05886230
 20
18.46071143
  0
VERTEX
  8
0
 62
7
 10
19.05850000
 20
18.46950000
  0
VERTEX
  8
0
 62
7
 10
19.05846582
 20
18.47917920
  0
VERTEX
  8
0
 62
7
 10
19.05869531
 20
18.48946484
  0
VERTEX
  8
0
 62
7
 10
19.05912402
 20
18.50007275
  0
VERTEX
  8
0
 62
7
 10
19.05968750
 20
18.51071875
  0
VERTEX
  8
0
 62
7
 10
19.06032129
 20
18.52111865
  0
VERTEX
  8
0
 62
7
 10
19.06096094
 20
18.53098828
  0
VERTEX
  8
0
 62
7
 10
19.06154199
 20
18.54004346
  0
VERTEX
  8
0
 62
7
 10
19.06200000
 20
18.54800000
  0
VERTEX
  8
0
 62
7
 10
19.06555664
 20
18.58798047
  0
VERTEX
  8
0
 62
7
 10
19.06851563
 20
18.62840625
  0
VERTEX
  8
0
 62
7
 10
19.07056055
 20
18.66925391
  0
VERTEX
  8
0
 62
7
 10
19.07137500
 20
18.71050000
  0
VERTEX
  8
0
 62
7
 10
19.07064258
 20
18.75212109
  0
VERTEX
  8
0
 62
7
 10
19.06804688
 20
18.79409375
  0
VERTEX
  8
0
 62
7
 10
19.06327148
 20
18.83639453
  0
VERTEX
  8
0
 62
7
 10
19.05600000
 20
18.87900000
  0
VERTEX
  8
0
 62
7
 10
19.04210742
 20
18.94533594
  0
VERTEX
  8
0
 62
7
 10
19.02642188
 20
19.00487500
  0
VERTEX
  8
0
 62
7
 10
19.00743164
 20
19.05878906
  0
VERTEX
  8
0
 62
7
 10
18.98362500
 20
19.10825000
  0
VERTEX
  8
0
 62
7
 10
18.95349023
 20
19.15442969
  0
VERTEX
  8
0
 62
7
 10
18.91551563
 20
19.19850000
  0
VERTEX
  8
0
 62
7
 10
18.86818945
 20
19.24163281
  0
VERTEX
  8
0
 62
7
 10
18.81000000
 20
19.28500000
  0
VERTEX
  8
0
 62
7
 10
18.76781250
 20
19.30829688
  0
VERTEX
  8
0
 62
7
 10
18.71625000
 20
19.33187500
  0
VERTEX
  8
0
 62
7
 10
18.66206250
 20
19.35601563
  0
VERTEX
  8
0
 62
7
 10
18.61200000
 20
19.38100000
  0
VERTEX
  8
0
 62
7
 10
18.58845313
 20
19.39559766
  0
VERTEX
  8
0
 62
7
 10
18.56406250
 20
19.41471875
  0
VERTEX
  8
0
 62
7
 10
18.53957813
 20
19.43735547
  0
VERTEX
  8
0
 62
7
 10
18.51575000
 20
19.46250000
  0
VERTEX
  8
0
 62
7
 10
18.49332813
 20
19.48914453
  0
VERTEX
  8
0
 62
7
 10
18.47306250
 20
19.51628125
  0
VERTEX
  8
0
 62
7
 10
18.45570313
 20
19.54290234
  0
VERTEX
  8
0
 62
7
 10
18.44200000
 20
19.56800000
  0
VERTEX
  8
0
 62
7
 10
18.41379614
 20
19.54149268
  0
VERTEX
  8
0
 62
7
 10
18.38699414
 20
19.51203516
  0
VERTEX
  8
0
 62
7
 10
18.36168335
 20
19.47991162
  0
VERTEX
  8
0
 62
7
 10
18.33795313
 20
19.44540625
  0
VERTEX
  8
0
 62
7
 10
18.31589282
 20
19.40880322
  0
VERTEX
  8
0
 62
7
 10
18.29559180
 20
19.37038672
  0
VERTEX
  8
0
 62
7
 10
18.27713940
 20
19.33044092
  0
VERTEX
  8
0
 62
7
 10
18.26062500
 20
19.28925000
  0
VERTEX
  8
0
 62
7
 10
18.24613794
 20
19.24709814
  0
VERTEX
  8
0
 62
7
 10
18.23376758
 20
19.20426953
  0
VERTEX
  8
0
 62
7
 10
18.22360327
 20
19.16104834
  0
VERTEX
  8
0
 62
7
 10
18.21573438
 20
19.11771875
  0
VERTEX
  8
0
 62
7
 10
18.21025024
 20
19.07456494
  0
VERTEX
  8
0
 62
7
 10
18.20724023
 20
19.03187109
  0
VERTEX
  8
0
 62
7
 10
18.20679370
 20
18.98992139
  0
VERTEX
  8
0
 62
7
 10
18.20900000
 20
18.94900000
  0
VERTEX
  8
0
 62
7
 10
18.21602637
 20
18.89161548
  0
VERTEX
  8
0
 62
7
 10
18.22658594
 20
18.83722070
  0
VERTEX
  8
0
 62
7
 10
18.24064941
 20
18.78582886
  0
VERTEX
  8
0
 62
7
 10
18.25818750
 20
18.73745313
  0
VERTEX
  8
0
 62
7
 10
18.27917090
 20
18.69210669
  0
VERTEX
  8
0
 62
7
 10
18.30357031
 20
18.64980273
  0
VERTEX
  8
0
 62
7
 10
18.33135645
 20
18.61055444
  0
VERTEX
  8
0
 62
7
 10
18.36250000
 20
18.57437500
  0
VERTEX
  8
0
 62
7
 10
18.39697168
 20
18.54127759
  0
VERTEX
  8
0
 62
7
 10
18.43474219
 20
18.51127539
  0
VERTEX
  8
0
 62
7
 10
18.47578223
 20
18.48438159
  0
VERTEX
  8
0
 62
7
 10
18.52006250
 20
18.46060938
  0
VERTEX
  8
0
 62
7
 10
18.56755371
 20
18.43997192
  0
VERTEX
  8
0
 62
7
 10
18.61822656
 20
18.42248242
  0
VERTEX
  8
0
 62
7
 10
18.67205176
 20
18.40815405
  0
VERTEX
  8
0
 62
7
 10
18.72900000
 20
18.39700000
  0
VERTEX
  8
0
 62
7
 10
18.78228125
 20
18.38948438
  0
VERTEX
  8
0
 62
7
 10
18.83650000
 20
18.38337500
  0
VERTEX
  8
0
 62
7
 10
18.88846875
 20
18.37632813
  0
VERTEX
  8
0
 62
7
 10
18.93500000
 20
18.36600000
  0
VERTEX
  8
0
 62
7
 10
18.94301074
 20
18.36234741
  0
VERTEX
  8
0
 62
7
 10
18.94846094
 20
18.35749805
  0
VERTEX
  8
0
 62
7
 10
18.95160254
 20
18.35161450
  0
VERTEX
  8
0
 62
7
 10
18.95268750
 20
18.34485938
  0
VERTEX
  8
0
 62
7
 10
18.95196777
 20
18.33739526
  0
VERTEX
  8
0
 62
7
 10
18.94969531
 20
18.32938477
  0
VERTEX
  8
0
 62
7
 10
18.94612207
 20
18.32099048
  0
VERTEX
  8
0
 62
7
 10
18.94150000
 20
18.31237500
  0
VERTEX
  8
0
 62
7
 10
18.93608105
 20
18.30370093
  0
VERTEX
  8
0
 62
7
 10
18.93011719
 20
18.29513086
  0
VERTEX
  8
0
 62
7
 10
18.92386035
 20
18.28682739
  0
VERTEX
  8
0
 62
7
 10
18.91756250
 20
18.27895313
  0
VERTEX
  8
0
 62
7
 10
18.91147559
 20
18.27167065
  0
VERTEX
  8
0
 62
7
 10
18.90585156
 20
18.26514258
  0
VERTEX
  8
0
 62
7
 10
18.90094238
 20
18.25953149
  0
VERTEX
  8
0
 62
7
 10
18.89700000
 20
18.25500000
  0
VERTEX
  8
0
 62
7
 10
18.68500000
 20
18.02800000
  0
VERTEX
  8
0
 62
7
 10
18.66332031
 20
18.00395898
  0
VERTEX
  8
0
 62
7
 10
18.61918750
 20
17.95735938
  0
VERTEX
  8
0
 62
7
 10
18.55696094
 20
17.89386133
  0
VERTEX
  8
0
 62
7
 10
18.48100000
 20
17.81912500
  0
VERTEX
  8
0
 62
7
 10
18.39566406
 20
17.73881055
  0
VERTEX
  8
0
 62
7
 10
18.30531250
 20
17.65857813
  0
VERTEX
  8
0
 62
7
 10
18.21430469
 20
17.58408789
  0
VERTEX
  8
0
 62
7
 10
18.12700000
 20
17.52100000
  0
VERTEX
  8
0
 62
7
 10
18.20000000
 20
17.39500000
  0
SEQEND
  0
POLYLINE
  8
0
 62
7
 66
1
 70
1
  0
VERTEX
  8
0
 62
7
 10
18.87400000
 20
17.61200000
  0
VERTEX
  8
0
 62
7
 10
18.94950000
 20
17.68850000
  0
VERTEX
  8
0
 62
7
 10
19.02200000
 20
17.76800000
  0
VERTEX
  8
0
 62
7
 10
19.00000000
 20
17.96000000
  0
VERTEX
  8
0
 62
7
 10
18.94203125
 20
17.88984375
  0
VERTEX
  8
0
 62
7
 10
18.88200000
 20
17.82175000
  0
VERTEX
  8
0
 62
7
 10
18.81971875
 20
17.75553125
  0
VERTEX
  8
0
 62
7
 10
18.75500000
 20
17.69100000
  0
VERTEX
  8
0
 62
7
 10
18.62600000
 20
17.57200000
  0
VERTEX
  8
0
 62
7
 10
18.87400000
 20
17.61200000
  0
SEQEND
  0
POLYLINE
  8
0
 62
7
 66
1
 70
1
  0
VERTEX
  8
0
 62
7
 10
20.53700000
 20
19.54600000
  0
VERTEX
  8
0
 62
7
 10
20.49859375
 20
19.56829688
  0
VERTEX
  8
0
 62
7
 10
20.45850000
 20
19.58862500
  0
VERTEX
  8
0
 62
7
 10
20.41690625
 20
19.60689063
  0
VERTEX
  8
0
 62
7
 10
20.37400000
 20
19.62300000
  0
VERTEX
  8
0
 62
7
 10
20.59937500
 20
19.79321875
  0
VERTEX
  8
0
 62
7
 10
20.82850000
 20
19.95875000
  0
VERTEX
  8
0
 62
7
 10
21.06137500
 20
20.11940625
  0
VERTEX
  8
0
 62
7
 10
21.29800000
 20
20.27500000
  0
VERTEX
  8
0
 62
7
 10
21.53029688
 20
20.41951563
  0
VERTEX
  8
0
 62
7
 10
21.76662500
 20
20.55887500
  0
VERTEX
  8
0
 62
7
 10
22.00689063
 20
20.69279688
  0
VERTEX
  8
0
 62
7
 10
22.25100000
 20
20.82100000
  0
VERTEX
  8
0
 62
7
 10
22.28584375
 20
20.83778125
  0
VERTEX
  8
0
 62
7
 10
22.35875000
 20
20.87200000
  0
VERTEX
  8
0
 62
7
 10
22.44928125
 20
20.91296875
  0
VERTEX
  8
0
 62
7
 10
22.53700000
 20
20.95000000
  0
VERTEX
  8
0
 62
7
 10
22.79500000
 20
20.90500000
  0
VERTEX
  8
0
 62
7
 10
22.52200000
 20
20.77200000
  0
VERTEX
  8
0
 62
7
 10
22.23785938
 20
20.62839063
  0
VERTEX
  8
0
 62
7
 10
21.95962500
 20
20.47812500
  0
VERTEX
  8
0
 62
7
 10
21.68682813
 20
20.32129688
  0
VERTEX
  8
0
 62
7
 10
21.41900000
 20
20.15800000
  0
VERTEX
  8
0
 62
7
 10
21.19301563
 20
20.01231250
  0
VERTEX
  8
0
 62
7
 10
20.97087500
 20
19.86175000
  0
VERTEX
  8
0
 62
7
 10
20.75229688
 20
19.70631250
  0
VERTEX
  8
0
 62
7
 10
20.53700000
 20
19.54600000
  0
SEQEND
  0
POLYLINE
  8
0
 62
7
 66
1
 70
1
  0
VERTEX
  8
0
 62
7
 10
20.28700000
 20
19.01600000
  0
VERTEX
  8
0
 62
7
 10
20.29942188
 20
19.06004688
  0
VERTEX
  8
0
 62
7
 10
20.31287500
 20
19.10212500
  0
VERTEX
  8
0
 62
7
 10
20.32764063
 20
19.14214063
  0
VERTEX
  8
0
 62
7
 10
20.34400000
 20
19.18000000
  0
VERTEX
  8
0
 62
7
 10
20.36303125
 20
19.21701563
  0
VERTEX
  8
0
 62
7
 10
20.38450000
 20
19.25262500
  0
VERTEX
  8
0
 62
7
 10
20.40896875
 20
19.28617188
  0
VERTEX
  8
0
 62
7
 10
20.43700000
 20
19.31700000
  0
VERTEX
  8
0
 62
7
 10
20.45860938
 20
19.33646875
  0
VERTEX
  8
0
 62
7
 10
20.48162500
 20
19.35425000
  0
VERTEX
  8
0
 62
7
 10
20.50632813
 20
19.37015625
  0
VERTEX
  8
0
 62
7
 10
20.53300000
 20
19.38400000
  0
VERTEX
  8
0
 62
7
 10
20.55420313
 20
19.39767188
  0
VERTEX
  8
0
 62
7
 10
20.56987500
 20
19.41537500
  0
VERTEX
  8
0
 62
7
 10
20.58010938
 20
19.43589063
  0
VERTEX
  8
0
 62
7
 10
20.58500000
 20
19.45800000
  0
VERTEX
  8
0
 62
7
 10
20.80489063
 20
19.62165625
  0
VERTEX
  8
0
 62
7
 10
21.02937500
 20
19.78100000
  0
VERTEX
  8
0
 62
7
 10
21.25817188
 20
19.93584375
  0
VERTEX
  8
0
 62
7
 10
21.49100000
 20
20.08600000
  0
VERTEX
  8
0
 62
7
 10
21.63574023
 20
20.17505469
  0
VERTEX
  8
0
 62
7
 10
21.78192188
 20
20.26218750
  0
VERTEX
  8
0
 62
7
 10
21.92948633
 20
20.34735156
  0
VERTEX
  8
0
 62
7
 10
22.07837500
 20
20.43050000
  0
VERTEX
  8
0
 62
7
 10
22.22852930
 20
20.51158594
  0
VERTEX
  8
0
 62
7
 10
22.37989063
 20
20.59056250
  0
VERTEX
  8
0
 62
7
 10
22.53240039
 20
20.66738281
  0
VERTEX
  8
0
 62
7
 10
22.68600000
 20
20.74200000
  0
VERTEX
  8
0
 62
7
 10
22.81375000
 20
20.80225000
  0
VERTEX
  8
0
 62
7
 10
22.97600000
 20
20.87600000
  0
VERTEX
  8
0
 62
7
 10
23.28100000
 20
20.83200000
  0
VERTEX
  8
0
 62
7
 10
22.96700000
 20
20.69000000
  0
VERTEX
  8
0
 62
7
 10
22.79183984
 20
20.60980273
  0
VERTEX
  8
0
 62
7
 10
22.61815625
 20
20.52673438
  0
VERTEX
  8
0
 62
7
 10
22.44601953
 20
20.44083008
  0
VERTEX
  8
0
 62
7
 10
22.27550000
 20
20.35212500
  0
VERTEX
  8
0
 62
7
 10
22.10666797
 20
20.26065430
  0
VERTEX
  8
0
 62
7
 10
21.93959375
 20
20.16645313
  0
VERTEX
  8
0
 62
7
 10
21.77434766
 20
20.06955664
  0
VERTEX
  8
0
 62
7
 10
21.61100000
 20
19.97000000
  0
VERTEX
  8
0
 62
7
 10
21.43770703
 20
19.86051172
  0
VERTEX
  8
0
 62
7
 10
21.26659375
 20
19.74809375
  0
VERTEX
  8
0
 62
7
 10
21.09768359
 20
19.63281641
  0
VERTEX
  8
0
 62
7
 10
20.93100000
 20
19.51475000
  0
VERTEX
  8
0
 62
7
 10
20.76656641
 20
19.39396484
  0
VERTEX
  8
0
 62
7
 10
20.60440625
 20
19.27053125
  0
VERTEX
  8
0
 62
7
 10
20.44454297
 20
19.14451953
  0
VERTEX
  8
0
 62
7
 10
20.28700000
 20
19.01600000
  0
SEQEND
  0
POLYLINE
  8
0
 62
7
 66
1
 70
1
  0
VERTEX
  8
0
 62
7
 10
18.87000000
 20
18.62200000
  0
VERTEX
  8
0
 62
7
 10
18.83111719
 20
18.65167383
  0
VERTEX
  8
0
 62
7
 10
18.79275000
 20
18.68295313
  0
VERTEX
  8
0
 62
7
 10
18.75532031
 20
18.71584961
  0
VERTEX
  8
0
 62
7
 10
18.71925000
 20
18.75037500
  0
VERTEX
  8
0
 62
7
 10
18.68496094
 20
18.78654102
  0
VERTEX
  8
0
 62
7
 10
18.65287500
 20
18.82435938
  0
VERTEX
  8
0
 62
7
 10
18.62341406
 20
18.86384180
  0
VERTEX
  8
0
 62
7
 10
18.59700000
 20
18.90500000
  0
VERTEX
  8
0
 62
7
 10
18.57215039
 20
18.94880469
  0
VERTEX
  8
0
 62
7
 10
18.54820313
 20
18.99387500
  0
VERTEX
  8
0
 62
7
 10
18.52568555
 20
19.04007031
  0
VERTEX
  8
0
 62
7
 10
18.50512500
 20
19.08725000
  0
VERTEX
  8
0
 62
7
 10
18.48704883
 20
19.13527344
  0
VERTEX
  8
0
 62
7
 10
18.47198438
 20
19.18400000
  0
VERTEX
  8
0
 62
7
 10
18.46045898
 20
19.23328906
  0
VERTEX
  8
0
 62
7
 10
18.45300000
 20
19.28300000
  0
VERTEX
  8
0
 62
7
 10
18.41800000
 20
19.27900000
  0
VERTEX
  8
0
 62
7
 10
18.42540039
 20
19.22558398
  0
VERTEX
  8
0
 62
7
 10
18.43557813
 20
19.17267188
  0
VERTEX
  8
0
 62
7
 10
18.44849805
 20
19.12039258
  0
VERTEX
  8
0
 62
7
 10
18.46412500
 20
19.06887500
  0
VERTEX
  8
0
 62
7
 10
18.48242383
 20
19.01824805
  0
VERTEX
  8
0
 62
7
 10
18.50335938
 20
18.96864063
  0
VERTEX
  8
0
 62
7
 10
18.52689648
 20
18.92018164
  0
VERTEX
  8
0
 62
7
 10
18.55300000
 20
18.87300000
  0
VERTEX
  8
0
 62
7
 10
18.58032031
 20
18.82875977
  0
VERTEX
  8
0
 62
7
 10
18.60975000
 20
18.78607813
  0
VERTEX
  8
0
 62
7
 10
18.64124219
 20
18.74501367
  0
VERTEX
  8
0
 62
7
 10
18.67475000
 20
18.70562500
  0
VERTEX
  8
0
 62
7
 10
18.71022656
 20
18.66797070
  0
VERTEX
  8
0
 62
7
 10
18.74762500
 20
18.63210938
  0
VERTEX
  8
0
 62
7
 10
18.78689844
 20
18.59809961
  0
VERTEX
  8
0
 62
7
 10
18.82800000
 20
18.56600000
  0
VERTEX
  8
0
 62
7
 10
18.84085938
 20
18.55992188
  0
VERTEX
  8
0
 62
7
 10
18.85437500
 20
18.55937500
  0
VERTEX
  8
0
 62
7
 10
18.86695313
 20
18.56389063
  0
VERTEX
  8
0
 62
7
 10
18.87700000
 20
18.57300000
  0
VERTEX
  8
0
 62
7
 10
18.88307813
 20
18.58585938
  0
VERTEX
  8
0
 62
7
 10
18.88362500
 20
18.59937500
  0
VERTEX
  8
0
 62
7
 10
18.87910938
 20
18.61195313
  0
VERTEX
  8
0
 62
7
 10
18.87000000
 20
18.62200000
  0
SEQEND
  0
POLYLINE
  8
0
 62
7
 66
1
 70
1
  0
VERTEX
  8
0
 62
7
 10
19.38000000
 20
18.59600000
  0
VERTEX
  8
0
 62
7
 10
19.45645313
 20
18.64342188
  0
VERTEX
  8
0
 62
7
 10
19.52812500
 20
18.69712500
  0
VERTEX
  8
0
 62
7
 10
19.59473438
 20
18.75701563
  0
VERTEX
  8
0
 62
7
 10
19.65600000
 20
18.82300000
  0
VERTEX
  8
0
 62
7
 10
19.71198438
 20
18.89618750
  0
VERTEX
  8
0
 62
7
 10
19.75887500
 20
18.96900000
  0
VERTEX
  8
0
 62
7
 10
19.79957813
 20
19.04181250
  0
VERTEX
  8
0
 62
7
 10
19.83700000
 20
19.11500000
  0
VERTEX
  8
0
 62
7
 10
19.86085742
 20
19.15428125
  0
VERTEX
  8
0
 62
7
 10
19.88798438
 20
19.19487500
  0
VERTEX
  8
0
 62
7
 10
19.91808789
 20
19.23565625
  0
VERTEX
  8
0
 62
7
 10
19.95087500
 20
19.27550000
  0
VERTEX
  8
0
 62
7
 10
19.98605273
 20
19.31328125
  0
VERTEX
  8
0
 62
7
 10
20.02332813
 20
19.34787500
  0
VERTEX
  8
0
 62
7
 10
20.06240820
 20
19.37815625
  0
VERTEX
  8
0
 62
7
 10
20.10300000
 20
19.40300000
  0
VERTEX
  8
0
 62
7
 10
20.09000000
 20
19.43600000
  0
VERTEX
  8
0
 62
7
 10
20.04589258
 20
19.41117969
  0
VERTEX
  8
0
 62
7
 10
20.00245313
 20
19.38331250
  0
VERTEX
  8
0
 62
7
 10
19.96025586
 20
19.35253906
  0
VERTEX
  8
0
 62
7
 10
19.91987500
 20
19.31900000
  0
VERTEX
  8
0
 62
7
 10
19.88188477
 20
19.28283594
  0
VERTEX
  8
0
 62
7
 10
19.84685938
 20
19.24418750
  0
VERTEX
  8
0
 62
7
 10
19.81537305
 20
19.20319531
  0
VERTEX
  8
0
 62
7
 10
19.78800000
 20
19.16000000
  0
VERTEX
  8
0
 62
7
 10
19.74642188
 20
19.08837500
  0
VERTEX
  8
0
 62
7
 10
19.70287500
 20
19.01375000
  0
VERTEX
  8
0
 62
7
 10
19.65539063
 20
18.93950000
  0
VERTEX
  8
0
 62
7
 10
19.60200000
 20
18.86900000
  0
VERTEX
  8
0
 62
7
 10
19.54526563
 20
18.80717188
  0
VERTEX
  8
0
 62
7
 10
19.48337500
 20
18.75087500
  0
VERTEX
  8
0
 62
7
 10
19.41679688
 20
18.70039063
  0
VERTEX
  8
0
 62
7
 10
19.34600000
 20
18.65600000
  0
VERTEX
  8
0
 62
7
 10
19.33539063
 20
18.64725000
  0
VERTEX
  8
0
 62
7
 10
19.32937500
 20
18.63550000
  0
VERTEX
  8
0
 62
7
 10
19.32842188
 20
18.62225000
  0
VERTEX
  8
0
 62
7
 10
19.33300000
 20
18.60900000
  0
VERTEX
  8
0
 62
7
 10
19.34175000
 20
18.59839063
  0
VERTEX
  8
0
 62
7
 10
19.35350000
 20
18.59237500
  0
VERTEX
  8
0
 62
7
 10
19.36675000
 20
18.59142188
  0
VERTEX
  8
0
 62
7
 10
19.38000000
 20
18.59600000
  0
SEQEND
  0
POLYLINE
  8
0
 62
7
 66
1
 70
1
  0
VERTEX
  8
0
 62
7
 10
19.21700000
 20
18.11500000
  0
VERTEX
  8
0
 62
7
 10
19.27329688
 20
18.09614063
  0
VERTEX
  8
0
 62
7
 10
19.32912500
 20
18.07512500
  0
VERTEX
  8
0
 62
7
 10
19.38364063
 20
18.05129688
  0
VERTEX
  8
0
 62
7
 10
19.43600000
 20
18.02400000
  0
VERTEX
  8
0
 62
7
 10
19.49909570
 20
17.98544727
  0
VERTEX
  8
0
 62
7
 10
19.56051563
 20
17.94395313
  0
VERTEX
  8
0
 62
7
 10
19.61970898
 20
17.89938867
  0
VERTEX
  8
0
 62
7
 10
19.67612500
 20
17.85162500
  0
VERTEX
  8
0
 62
7
 10
19.72921289
 20
17.80053320
  0
VERTEX
  8
0
 62
7
 10
19.77842188
 20
17.74598438
  0
VERTEX
  8
0
 62
7
 10
19.82320117
 20
17.68784961
  0
VERTEX
  8
0
 62
7
 10
19.86300000
 20
17.62600000
  0
VERTEX
  8
0
 62
7
 10
19.90200000
 20
17.64400000
  0
VERTEX
  8
0
 62
7
 10
19.86054102
 20
17.71010547
  0
VERTEX
  8
0
 62
7
 10
19.81501563
 20
17.77328125
  0
VERTEX
  8
0
 62
7
 10
19.76557617
 20
17.83331641
  0
VERTEX
  8
0
 62
7
 10
19.71237500
 20
17.89000000
  0
VERTEX
  8
0
 62
7
 10
19.65556445
 20
17.94312109
  0
VERTEX
  8
0
 62
7
 10
19.59529688
 20
17.99246875
  0
VERTEX
  8
0
 62
7
 10
19.53172461
 20
18.03783203
  0
VERTEX
  8
0
 62
7
 10
19.46500000
 20
18.07900000
  0
VERTEX
  8
0
 62
7
 10
19.41084375
 20
18.10900000
  0
VERTEX
  8
0
 62
7
 10
19.35500000
 20
18.13600000
  0
VERTEX
  8
0
 62
7
 10
19.29765625
 20
18.16000000
  0
VERTEX
  8
0
 62
7
 10
19.23900000
 20
18.18100000
  0
VERTEX
  8
0
 62
7
 10
19.22495313
 20
18.18262500
  0
VERTEX
  8
0
 62
7
 10
19.21212500
 20
18.17900000
  0
VERTEX
  8
0
 62
7
 10
19.20173438
 20
18.17087500
  0
VERTEX
  8
0
 62
7
 10
19.19500000
 20
18.15900000
  0
VERTEX
  8
0
 62
7
 10
19.19337500
 20
18.14495313
  0
VERTEX
  8
0
 62
7
 10
19.19700000
 20
18.13212500
  0
VERTEX
  8
0
 62
7
 10
19.20512500
 20
18.12173438
  0
VERTEX
  8
0
 62
7
 10
19.21700000
 20
18.11500000
  0
SEQEND
  0
POLYLINE
  8
0
 62
7
 66
1
 70
1
  0
VERTEX
  8
0
 62
7
 10
6.88655000
 20
5.34060000
  0
VERTEX
  8
0
 62
7
 10
6.91463486
 20
5.30982236
  0
VERTEX
  8
0
 62
7
 10
6.94404453
 20
5.27957266
  0
VERTEX
  8
0
 62
7
 10
6.97474912
 20
5.25021943
  0
VERTEX
  8
0
 62
7
 10
7.00671875
 20
5.22213125
  0
VERTEX
  8
0
 62
7
 10
7.03992354
 20
5.19567666
  0
VERTEX
  8
0
 62
7
 10
7.07433359
 20
5.17122422
  0
VERTEX
  8
0
 62
7
 10
7.10991904
 20
5.14914248
  0
VERTEX
  8
0
 62
7
 10
7.14665000
 20
5.12980000
  0
VERTEX
  8
0
 62
7
 10
7.18547109
 20
5.11218574
  0
VERTEX
  8
0
 62
7
 10
7.22532813
 20
5.09534844
  0
VERTEX
  8
0
 62
7
 10
7.26606172
 20
5.07974629
  0
VERTEX
  8
0
 62
7
 10
7.30751250
 20
5.06583750
  0
VERTEX
  8
0
 62
7
 10
7.34952109
 20
5.05408027
  0
VERTEX
  8
0
 62
7
 10
7.39192813
 20
5.04493281
  0
VERTEX
  8
0
 62
7
 10
7.43457422
 20
5.03885332
  0
VERTEX
  8
0
 62
7
 10
7.47730000
 20
5.03630000
  0
VERTEX
  8
0
 62
7
 10
7.47645000
 20
5.00655000
  0
VERTEX
  8
0
 62
7
 10
7.43064629
 20
5.00873643
  0
VERTEX
  8
0
 62
7
 10
7.38510156
 20
5.01336328
  0
VERTEX
  8
0
 62
7
 10
7.33991543
 20
5.02040068
  0
VERTEX
  8
0
 62
7
 10
7.29518750
 20
5.02981875
  0
VERTEX
  8
0
 62
7
 10
7.25101738
 20
5.04158760
  0
VERTEX
  8
0
 62
7
 10
7.20750469
 20
5.05567734
  0
VERTEX
  8
0
 62
7
 10
7.16474902
 20
5.07205811
  0
VERTEX
  8
0
 62
7
 10
7.12285000
 20
5.09070000
  0
VERTEX
  8
0
 62
7
 10
7.08329014
 20
5.11049404
  0
VERTEX
  8
0
 62
7
 10
7.04495547
 20
5.13223047
  0
VERTEX
  8
0
 62
7
 10
7.00787588
 20
5.15585947
  0
VERTEX
  8
0
 62
7
 10
6.97208125
 20
5.18133125
  0
VERTEX
  8
0
 62
7
 10
6.93760146
 20
5.20859600
  0
VERTEX
  8
0
 62
7
 10
6.90446641
 20
5.23760391
  0
VERTEX
  8
0
 62
7
 10
6.87270596
 20
5.26830518
  0
VERTEX
  8
0
 62
7
 10
6.84235000
 20
5.30065000
  0
VERTEX
  8
0
 62
7
 10
6.83641328
 20
5.31110234
  0
VERTEX
  8
0
 62
7
 10
6.83501875
 20
5.32243125
  0
VERTEX
  8
0
 62
7
 10
6.83792734
 20
5.33328203
  0
VERTEX
  8
0
 62
7
 10
6.84490000
 20
5.34230000
  0
VERTEX
  8
0
 62
7
 10
6.85535234
 20
5.34872813
  0
VERTEX
  8
0
 62
7
 10
6.86668125
 20
5.35037500
  0
VERTEX
  8
0
 62
7
 10
6.87753203
 20
5.34755938
  0
VERTEX
  8
0
 62
7
 10
6.88655000
 20
5.34060000
  0
SEQEND
  0
POLYLINE
  8
0
 62
7
 66
1
 70
1
  0
VERTEX
  8
0
 62
7
 10
6.82700000
 20
5.77020000
  0
VERTEX
  8
0
 62
7
 10
6.86173047
 20
5.83854531
  0
VERTEX
  8
0
 62
7
 10
6.90211875
 20
5.90322500
  0
VERTEX
  8
0
 62
7
 10
6.94808516
 20
5.96407969
  0
VERTEX
  8
0
 62
7
 10
6.99955000
 20
6.02095000
  0
VERTEX
  8
0
 62
7
 10
7.05711094
 20
6.07365000
  0
VERTEX
  8
0
 62
7
 10
7.11515000
 20
6.11870000
  0
VERTEX
  8
0
 62
7
 10
7.17382656
 20
6.15865000
  0
VERTEX
  8
0
 62
7
 10
7.23330000
 20
6.19605000
  0
VERTEX
  8
0
 62
7
 10
7.26466035
 20
6.21898340
  0
VERTEX
  8
0
 62
7
 10
7.29691719
 20
6.24484531
  0
VERTEX
  8
0
 62
7
 10
7.32913418
 20
6.27329707
  0
VERTEX
  8
0
 62
7
 10
7.36037500
 20
6.30400000
  0
VERTEX
  8
0
 62
7
 10
7.38970332
 20
6.33661543
  0
VERTEX
  8
0
 62
7
 10
7.41618281
 20
6.37080469
  0
VERTEX
  8
0
 62
7
 10
7.43887715
 20
6.40622910
  0
VERTEX
  8
0
 62
7
 10
7.45685000
 20
6.44255000
  0
VERTEX
  8
0
 62
7
 10
7.48575000
 20
6.43405000
  0
VERTEX
  8
0
 62
7
 10
7.46811582
 20
6.39484707
  0
VERTEX
  8
0
 62
7
 10
7.44779219
 20
6.35598281
  0
VERTEX
  8
0
 62
7
 10
7.42487871
 20
6.31795527
  0
VERTEX
  8
0
 62
7
 10
7.39947500
 20
6.28126250
  0
VERTEX
  8
0
 62
7
 10
7.37168066
 20
6.24640254
  0
VERTEX
  8
0
 62
7
 10
7.34159531
 20
6.21387344
  0
VERTEX
  8
0
 62
7
 10
7.30931855
 20
6.18417324
  0
VERTEX
  8
0
 62
7
 10
7.27495000
 20
6.15780000
  0
VERTEX
  8
0
 62
7
 10
7.21728281
 20
6.11722578
  0
VERTEX
  8
0
 62
7
 10
7.15722500
 20
6.07481875
  0
VERTEX
  8
0
 62
7
 10
7.09780469
 20
6.02906484
  0
VERTEX
  8
0
 62
7
 10
7.04205000
 20
5.97845000
  0
VERTEX
  8
0
 62
7
 10
6.99410469
 20
5.92593594
  0
VERTEX
  8
0
 62
7
 10
6.95110000
 20
5.86943750
  0
VERTEX
  8
0
 62
7
 10
6.91319531
 20
5.80943281
  0
VERTEX
  8
0
 62
7
 10
6.88055000
 20
5.74640000
  0
VERTEX
  8
0
 62
7
 10
6.87408203
 20
5.73661172
  0
VERTEX
  8
0
 62
7
 10
6.86450625
 20
5.73056875
  0
VERTEX
  8
0
 62
7
 10
6.85317734
 20
5.72882891
  0
VERTEX
  8
0
 62
7
 10
6.84145000
 20
5.73195000
  0
VERTEX
  8
0
 62
7
 10
6.83213984
 20
5.73828516
  0
VERTEX
  8
0
 62
7
 10
6.82625625
 20
5.74756875
  0
VERTEX
  8
0
 62
7
 10
6.82435703
 20
5.75860547
  0
VERTEX
  8
0
 62
7
 10
6.82700000
 20
5.77020000
  0
SEQEND
  0
POLYLINE
  8
0
 62
7
 66
1
 70
1
  0
VERTEX
  8
0
 62
7
 10
6.43200000
 20
5.59750000
  0
VERTEX
  8
0
 62
7
 10
6.41165313
 20
5.64343984
  0
VERTEX
  8
0
 62
7
 10
6.38971250
 20
5.68898125
  0
VERTEX
  8
0
 62
7
 10
6.36554063
 20
5.73340703
  0
VERTEX
  8
0
 62
7
 10
6.33850000
 20
5.77600000
  0
VERTEX
  8
0
 62
7
 10
6.30127764
 20
5.82664307
  0
VERTEX
  8
0
 62
7
 10
6.26161484
 20
5.87562266
  0
VERTEX
  8
0
 62
7
 10
6.21946182
 20
5.92247061
  0
VERTEX
  8
0
 62
7
 10
6.17476875
 20
5.96671875
  0
VERTEX
  8
0
 62
7
 10
6.12748584
 20
6.00789893
  0
VERTEX
  8
0
 62
7
 10
6.07756328
 20
6.04554297
  0
VERTEX
  8
0
 62
7
 10
6.02495127
 20
6.07918271
  0
VERTEX
  8
0
 62
7
 10
5.96960000
 20
6.10835000
  0
VERTEX
  8
0
 62
7
 10
5.98235000
 20
6.14235000
  0
VERTEX
  8
0
 62
7
 10
6.04128389
 20
6.11212520
  0
VERTEX
  8
0
 62
7
 10
6.09809609
 20
6.07825469
  0
VERTEX
  8
0
 62
7
 10
6.15257744
 20
6.04083809
  0
VERTEX
  8
0
 62
7
 10
6.20451875
 20
5.99997500
  0
VERTEX
  8
0
 62
7
 10
6.25371084
 20
5.95576504
  0
VERTEX
  8
0
 62
7
 10
6.29994453
 20
5.90830781
  0
VERTEX
  8
0
 62
7
 10
6.34301064
 20
5.85770293
  0
VERTEX
  8
0
 62
7
 10
6.38270000
 20
5.80405000
  0
VERTEX
  8
0
 62
7
 10
6.41217109
 20
5.76054063
  0
VERTEX
  8
0
 62
7
 10
6.43933125
 20
5.71543750
  0
VERTEX
  8
0
 62
7
 10
6.46410078
 20
5.66874063
  0
VERTEX
  8
0
 62
7
 10
6.48640000
 20
5.62045000
  0
VERTEX
  8
0
 62
7
 10
6.48855156
 20
5.60884219
  0
VERTEX
  8
0
 62
7
 10
6.48640000
 20
5.59771250
  0
VERTEX
  8
0
 62
7
 10
6.48042344
 20
5.58817656
  0
VERTEX
  8
0
 62
7
 10
6.47110000
 20
5.58135000
  0
VERTEX
  8
0
 62
7
 10
6.45901406
 20
5.57921172
  0
VERTEX
  8
0
 62
7
 10
6.44772500
 20
5.58145625
  0
VERTEX
  8
0
 62
7
 10
6.43834844
 20
5.58768516
  0
VERTEX
  8
0
 62
7
 10
6.43200000
 20
5.59750000
  0
SEQEND
  0
POLYLINE
  8
0
 62
7
 66
1
 70
1
  0
VERTEX
  8
0
 62
7
 10
.00700000
 20
3.31100000
  0
VERTEX
  8
0
 62
7
 10
.00700000
 20
3.06300000
  0
VERTEX
  8
0
 62
7
 10
.15873657
 20
3.06870386
  0
VERTEX
  8
0
 62
7
 10
.31123633
 20
3.07502148
  0
VERTEX
  8
0
 62
7
 10
.46437183
 20
3.08207446
  0
VERTEX
  8
0
 62
7
 10
.61801563
 20
3.08998438
  0
VERTEX
  8
0
 62
7
 10
.77204028
 20
3.09887280
  0
VERTEX
  8
0
 62
7
 10
.92631836
 20
3.10886133
  0
VERTEX
  8
0
 62
7
 10
1.08072241
 20
3.12007153
  0
VERTEX
  8
0
 62
7
 10
1.23512500
 20
3.13262500
  0
VERTEX
  8
0
 62
7
 10
1.38939868
 20
3.14664331
  0
VERTEX
  8
0
 62
7
 10
1.54341602
 20
3.16224805
  0
VERTEX
  8
0
 62
7
 10
1.69704956
 20
3.17956079
  0
VERTEX
  8
0
 62
7
 10
1.85017188
 20
3.19870313
  0
VERTEX
  8
0
 62
7
 10
2.00265552
 20
3.21979663
  0
VERTEX
  8
0
 62
7
 10
2.15437305
 20
3.24296289
  0
VERTEX
  8
0
 62
7
 10
2.30519702
 20
3.26832349
  0
VERTEX
  8
0
 62
7
 10
2.45500000
 20
3.29600000
  0
VERTEX
  8
0
 62
7
 10
2.69760938
 20
3.33478174
  0
VERTEX
  8
0
 62
7
 10
2.93585938
 20
3.37844141
  0
VERTEX
  8
0
 62
7
 10
3.17000781
 20
3.42707568
  0
VERTEX
  8
0
 62
7
 10
3.40031250
 20
3.48078125
  0
VERTEX
  8
0
 62
7
 10
3.62703125
 20
3.53965479
  0
VERTEX
  8
0
 62
7
 10
3.85042188
 20
3.60379297
  0
VERTEX
  8
0
 62
7
 10
4.07074219
 20
3.67329248
  0
VERTEX
  8
0
 62
7
 10
4.28825000
 20
3.74825000
  0
VERTEX
  8
0
 62
7
 10
4.50320313
 20
3.82876221
  0
VERTEX
  8
0
 62
7
 10
4.71585938
 20
3.91492578
  0
VERTEX
  8
0
 62
7
 10
4.92647656
 20
4.00683740
  0
VERTEX
  8
0
 62
7
 10
5.13531250
 20
4.10459375
  0
VERTEX
  8
0
 62
7
 10
5.34262500
 20
4.20829150
  0
VERTEX
  8
0
 62
7
 10
5.54867188
 20
4.31802734
  0
VERTEX
  8
0
 62
7
 10
5.75371094
 20
4.43389795
  0
VERTEX
  8
0
 62
7
 10
5.95800000
 20
4.55600000
  0
VERTEX
  8
0
 62
7
 10
6.04736719
 20
4.60673047
  0
VERTEX
  8
0
 62
7
 10
6.14662500
 20
4.65715625
  0
VERTEX
  8
0
 62
7
 10
6.25225781
 20
4.70762891
  0
VERTEX
  8
0
 62
7
 10
6.36075000
 20
4.75850000
  0
VERTEX
  8
0
 62
7
 10
6.46858594
 20
4.81012109
  0
VERTEX
  8
0
 62
7
 10
6.57225000
 20
4.86284375
  0
VERTEX
  8
0
 62
7
 10
6.66822656
 20
4.91701953
  0
VERTEX
  8
0
 62
7
 10
6.75300000
 20
4.97300000
  0
VERTEX
  8
0
 62
7
 10
6.74553125
 20
5.00442188
  0
VERTEX
  8
0
 62
7
 10
6.73300000
 20
5.03462500
  0
VERTEX
  8
0
 62
7
 10
6.71896875
 20
5.06426563
  0
VERTEX
  8
0
 62
7
 10
6.70700000
 20
5.09400000
  0
VERTEX
  8
0
 62
7
 10
6.67804883
 20
5.06909375
  0
VERTEX
  8
0
 62
7
 10
6.64451563
 20
5.04531250
  0
VERTEX
  8
0
 62
7
 10
6.60763086
 20
5.02256250
  0
VERTEX
  8
0
 62
7
 10
6.56862500
 20
5.00075000
  0
VERTEX
  8
0
 62
7
 10
6.52872852
 20
4.97978125
  0
VERTEX
  8
0
 62
7
 10
6.48917188
 20
4.95956250
  0
VERTEX
  8
0
 62
7
 10
6.45118555
 20
4.94000000
  0
VERTEX
  8
0
 62
7
 10
6.41600000
 20
4.92100000
  0
VERTEX
  8
0
 62
7
 10
6.34907813
 20
4.88493750
  0
VERTEX
  8
0
 62
7
 10
6.28337500
 20
4.85375000
  0
VERTEX
  8
0
 62
7
 10
6.21673438
 20
4.82593750
  0
VERTEX
  8
0
 62
7
 10
6.14700000
 20
4.80000000
  0
VERTEX
  8
0
 62
7
 10
6.13200000
 20
4.81700000
  0
VERTEX
  8
0
 62
7
 10
6.34700000
 20
5.02900000
  0
VERTEX
  8
0
 62
7
 10
6.45312500
 20
5.13837500
  0
VERTEX
  8
0
 62
7
 10
6.60800000
 20
5.31900000
  0
VERTEX
  8
0
 62
7
 10
6.61619727
 20
5.32891602
  0
VERTEX
  8
0
 62
7
 10
6.62614063
 20
5.34039063
  0
VERTEX
  8
0
 62
7
 10
6.63723242
 20
5.35188867
  0
VERTEX
  8
0
 62
7
 10
6.64887500
 20
5.36187500
  0
VERTEX
  8
0
 62
7
 10
6.66047070
 20
5.36881445
  0
VERTEX
  8
0
 62
7
 10
6.67142188
 20
5.37117188
  0
VERTEX
  8
0
 62
7
 10
6.68113086
 20
5.36741211
  0
VERTEX
  8
0
 62
7
 10
6.68900000
 20
5.35600000
  0
VERTEX
  8
0
 62
7
 10
6.70131250
 20
5.31729688
  0
VERTEX
  8
0
 62
7
 10
6.71100000
 20
5.27362500
  0
VERTEX
  8
0
 62
7
 10
6.71993750
 20
5.22789063
  0
VERTEX
  8
0
 62
7
 10
6.73000000
 20
5.18300000
  0
VERTEX
  8
0
 62
7
 10
6.74381372
 20
5.13513306
  0
VERTEX
  8
0
 62
7
 10
6.76011914
 20
5.09017383
  0
VERTEX
  8
0
 62
7
 10
6.77890015
 20
5.04814722
  0
VERTEX
  8
0
 62
7
 10
6.80014063
 20
5.00907813
  0
VERTEX
  8
0
 62
7
 10
6.82382446
 20
4.97299146
  0
VERTEX
  8
0
 62
7
 10
6.84993555
 20
4.93991211
  0
VERTEX
  8
0
 62
7
 10
6.87845776
 20
4.90986499
  0
VERTEX
  8
0
 62
7
 10
6.90937500
 20
4.88287500
  0
VERTEX
  8
0
 62
7
 10
6.94267114
 20
4.85896704
  0
VERTEX
  8
0
 62
7
 10
6.97833008
 20
4.83816602
  0
VERTEX
  8
0
 62
7
 10
7.01633569
 20
4.82049683
  0
VERTEX
  8
0
 62
7
 10
7.05667188
 20
4.80598438
  0
VERTEX
  8
0
 62
7
 10
7.09932251
 20
4.79465356
  0
VERTEX
  8
0
 62
7
 10
7.14427148
 20
4.78652930
  0
VERTEX
  8
0
 62
7
 10
7.19150269
 20
4.78163647
  0
VERTEX
  8
0
 62
7
 10
7.24100000
 20
4.78000000
  0
VERTEX
  8
0
 62
7
 10
7.27611621
 20
4.78121338
  0
VERTEX
  8
0
 62
7
 10
7.31192969
 20
4.78478516
  0
VERTEX
  8
0
 62
7
 10
7.34820020
 20
4.79061279
  0
VERTEX
  8
0
 62
7
 10
7.38468750
 20
4.79859375
  0
VERTEX
  8
0
 62
7
 10
7.42115137
 20
4.80862549
  0
VERTEX
  8
0
 62
7
 10
7.45735156
 20
4.82060547
  0
VERTEX
  8
0
 62
7
 10
7.49304785
 20
4.83443115
  0
VERTEX
  8
0
 62
7
 10
7.52800000
 20
4.85000000
  0
VERTEX
  8
0
 62
7
 10
7.56196777
 20
4.86720947
  0
VERTEX
  8
0
 62
7
 10
7.59471094
 20
4.88595703
  0
VERTEX
  8
0
 62
7
 10
7.62598926
 20
4.90614014
  0
VERTEX
  8
0
 62
7
 10
7.65556250
 20
4.92765625
  0
VERTEX
  8
0
 62
7
 10
7.68319043
 20
4.95040283
  0
VERTEX
  8
0
 62
7
 10
7.70863281
 20
4.97427734
  0
VERTEX
  8
0
 62
7
 10
7.73164941
 20
4.99917725
  0
VERTEX
  8
0
 62
7
 10
7.75200000
 20
5.02500000
  0
VERTEX
  8
0
 62
7
 10
7.70557813
 20
5.04743750
  0
VERTEX
  8
0
 62
7
 10
7.65662500
 20
5.08000000
  0
VERTEX
  8
0
 62
7
 10
7.61235938
 20
5.11781250
  0
VERTEX
  8
0
 62
7
 10
7.58000000
 20
5.15600000
  0
VERTEX
  8
0
 62
7
 10
7.55471875
 20
5.19762500
  0
VERTEX
  8
0
 62
7
 10
7.53000000
 20
5.24225000
  0
VERTEX
  8
0
 62
7
 10
7.50603125
 20
5.28425000
  0
VERTEX
  8
0
 62
7
 10
7.48300000
 20
5.31800000
  0
VERTEX
  8
0
 62
7
 10
7.44147656
 20
5.36466016
  0
VERTEX
  8
0
 62
7
 10
7.40093750
 20
5.40196875
  0
VERTEX
  8
0
 62
7
 10
7.36030469
 20
5.43116797
  0
VERTEX
  8
0
 62
7
 10
7.31850000
 20
5.45350000
  0
VERTEX
  8
0
 62
7
 10
7.27444531
 20
5.47020703
  0
VERTEX
  8
0
 62
7
 10
7.22706250
 20
5.48253125
  0
VERTEX
  8
0
 62
7
 10
7.17527344
 20
5.49171484
  0
VERTEX
  8
0
 62
7
 10
7.11800000
 20
5.49900000
  0
VERTEX
  8
0
 62
7
 10
7.08077734
 20
5.50195508
  0
VERTEX
  8
0
 62
7
 10
7.04409375
 20
5.50276563
  0
VERTEX
  8
0
 62
7
 10
7.00792578
 20
5.50172461
  0
VERTEX
  8
0
 62
7
 10
6.97225000
 20
5.49912500
  0
VERTEX
  8
0
 62
7
 10
6.93704297
 20
5.49525977
  0
VERTEX
  8
0
 62
7
 10
6.90228125
 20
5.49042188
  0
VERTEX
  8
0
 62
7
 10
6.86794141
 20
5.48490430
  0
VERTEX
  8
0
 62
7
 10
6.83400000
 20
5.47900000
  0
VERTEX
  8
0
 62
7
 10
6.81992773
 20
5.47642383
  0
VERTEX
  8
0
 62
7
 10
6.80298438
 20
5.47357813
  0
VERTEX
  8
0
 62
7
 10
6.78508008
 20
5.47103711
  0
VERTEX
  8
0
 62
7
 10
6.76812500
 20
5.46937500
  0
VERTEX
  8
0
 62
7
 10
6.75402930
 20
5.46916602
  0
VERTEX
  8
0
 62
7
 10
6.74470313
 20
5.47098438
  0
VERTEX
  8
0
 62
7
 10
6.74205664
 20
5.47540430
  0
VERTEX
  8
0
 62
7
 10
6.74800000
 20
5.48300000
  0
VERTEX
  8
0
 62
7
 10
6.77083008
 20
5.50941992
  0
VERTEX
  8
0
 62
7
 10
6.79657813
 20
5.53198438
  0
VERTEX
  8
0
 62
7
 10
6.82525586
 20
5.55115039
  0
VERTEX
  8
0
 62
7
 10
6.85687500
 20
5.56737500
  0
VERTEX
  8
0
 62
7
 10
6.89144727
 20
5.58111523
  0
VERTEX
  8
0
 62
7
 10
6.92898438
 20
5.59282813
  0
VERTEX
  8
0
 62
7
 10
6.96949805
 20
5.60297070
  0
VERTEX
  8
0
 62
7
 10
7.01300000
 20
5.61200000
  0
VERTEX
  8
0
 62
7
 10
7.06999023
 20
5.62434375
  0
VERTEX
  8
0
 62
7
 10
7.12842188
 20
5.64025000
  0
VERTEX
  8
0
 62
7
 10
7.18711133
 20
5.65953125
  0
VERTEX
  8
0
 62
7
 10
7.24487500
 20
5.68200000
  0
VERTEX
  8
0
 62
7
 10
7.30052930
 20
5.70746875
  0
VERTEX
  8
0
 62
7
 10
7.35289063
 20
5.73575000
  0
VERTEX
  8
0
 62
7
 10
7.40077539
 20
5.76665625
  0
VERTEX
  8
0
 62
7
 10
7.44300000
 20
5.80000000
  0
VERTEX
  8
0
 62
7
 10
7.49042383
 20
5.84693750
  0
VERTEX
  8
0
 62
7
 10
7.53270313
 20
5.89837500
  0
VERTEX
  8
0
 62
7
 10
7.56947461
 20
5.95412500
  0
VERTEX
  8
0
 62
7
 10
7.60037500
 20
6.01400000
  0
VERTEX
  8
0
 62
7
 10
7.62504102
 20
6.07781250
  0
VERTEX
  8
0
 62
7
 10
7.64310938
 20
6.14537500
  0
VERTEX
  8
0
 62
7
 10
7.65421680
 20
6.21650000
  0
VERTEX
  8
0
 62
7
 10
7.65800000
 20
6.29100000
  0
VERTEX
  8
0
 62
7
 10
7.65570508
 20
6.35477148
  0
VERTEX
  8
0
 62
7
 10
7.64882813
 20
6.41942188
  0
VERTEX
  8
0
 62
7
 10
7.63738086
 20
6.48395508
  0
VERTEX
  8
0
 62
7
 10
7.62137500
 20
6.54737500
  0
VERTEX
  8
0
 62
7
 10
7.60082227
 20
6.60868555
  0
VERTEX
  8
0
 62
7
 10
7.57573438
 20
6.66689063
  0
VERTEX
  8
0
 62
7
 10
7.54612305
 20
6.72099414
  0
VERTEX
  8
0
 62
7
 10
7.51200000
 20
6.77000000
  0
VERTEX
  8
0
 62
7
 10
7.49984424
 20
6.74057227
  0
VERTEX
  8
0
 62
7
 10
7.48558203
 20
6.71298438
  0
VERTEX
  8
0
 62
7
 10
7.46933350
 20
6.68715430
  0
VERTEX
  8
0
 62
7
 10
7.45121875
 20
6.66300000
  0
VERTEX
  8
0
 62
7
 10
7.43135791
 20
6.64043945
  0
VERTEX
  8
0
 62
7
 10
7.40987109
 20
6.61939063
  0
VERTEX
  8
0
 62
7
 10
7.38687842
 20
6.59977148
  0
VERTEX
  8
0
 62
7
 10
7.36250000
 20
6.58150000
  0
VERTEX
  8
0
 62
7
 10
7.33685596
 20
6.56449414
  0
VERTEX
  8
0
 62
7
 10
7.31006641
 20
6.54867188
  0
VERTEX
  8
0
 62
7
 10
7.28225146
 20
6.53395117
  0
VERTEX
  8
0
 62
7
 10
7.25353125
 20
6.52025000
  0
VERTEX
  8
0
 62
7
 10
7.22402588
 20
6.50748633
  0
VERTEX
  8
0
 62
7
 10
7.19385547
 20
6.49557813
  0
VERTEX
  8
0
 62
7
 10
7.16314014
 20
6.48444336
  0
VERTEX
  8
0
 62
7
 10
7.13200000
 20
6.47400000
  0
VERTEX
  8
0
 62
7
 10
7.06712500
 20
6.45015039
  0
VERTEX
  8
0
 62
7
 10
7.00937500
 20
6.42345313
  0
VERTEX
  8
0
 62
7
 10
6.95818750
 20
6.39368555
  0
VERTEX
  8
0
 62
7
 10
6.91300000
 20
6.36062500
  0
VERTEX
  8
0
 62
7
 10
6.87325000
 20
6.32404883
  0
VERTEX
  8
0
 62
7
 10
6.83837500
 20
6.28373438
  0
VERTEX
  8
0
 62
7
 10
6.80781250
 20
6.23945898
  0
VERTEX
  8
0
 62
7
 10
6.78100000
 20
6.19100000
  0
VERTEX
  8
0
 62
7
 10
6.76377930
 20
6.14942969
  0
VERTEX
  8
0
 62
7
 10
6.75010938
 20
6.10593750
  0
VERTEX
  8
0
 62
7
 10
6.73960352
 20
6.06085156
  0
VERTEX
  8
0
 62
7
 10
6.73187500
 20
6.01450000
  0
VERTEX
  8
0
 62
7
 10
6.72653711
 20
5.96721094
  0
VERTEX
  8
0
 62
7
 10
6.72320313
 20
5.91931250
  0
VERTEX
  8
0
 62
7
 10
6.72148633
 20
5.87113281
  0
VERTEX
  8
0
 62
7
 10
6.72100000
 20
5.82300000
  0
VERTEX
  8
0
 62
7
 10
6.72108789
 20
5.78060156
  0
VERTEX
  8
0
 62
7
 10
6.72095313
 20
5.74200000
  0
VERTEX
  8
0
 62
7
 10
6.71999805
 20
5.70621094
  0
VERTEX
  8
0
 62
7
 10
6.71762500
 20
5.67225000
  0
VERTEX
  8
0
 62
7
 10
6.71323633
 20
5.63913281
  0
VERTEX
  8
0
 62
7
 10
6.70623438
 20
5.60587500
  0
VERTEX
  8
0
 62
7
 10
6.69602148
 20
5.57149219
  0
VERTEX
  8
0
 62
7
 10
6.68200000
 20
5.53500000
  0
VERTEX
  8
0
 62
7
 10
6.67228125
 20
5.52529688
  0
VERTEX
  8
0
 62
7
 10
6.65900000
 20
5.52187500
  0
VERTEX
  8
0
 62
7
 10
6.64571875
 20
5.52501563
  0
VERTEX
  8
0
 62
7
 10
6.63600000
 20
5.53500000
  0
VERTEX
  8
0
 62
7
 10
6.63700000
 20
5.59500000
  0
VERTEX
  8
0
 62
7
 10
6.63514063
 20
5.66507813
  0
VERTEX
  8
0
 62
7
 10
6.62962500
 20
5.73412500
  0
VERTEX
  8
0
 62
7
 10
6.62054688
 20
5.80185938
  0
VERTEX
  8
0
 62
7
 10
6.60800000
 20
5.86800000
  0
VERTEX
  8
0
 62
7
 10
6.59338232
 20
5.91636816
  0
VERTEX
  8
0
 62
7
 10
6.57444922
 20
5.96239844
  0
VERTEX
  8
0
 62
7
 10
6.55145557
 20
6.00597949
  0
VERTEX
  8
0
 62
7
 10
6.52465625
 20
6.04700000
  0
VERTEX
  8
0
 62
7
 10
6.49430615
 20
6.08534863
  0
VERTEX
  8
0
 62
7
 10
6.46066016
 20
6.12091406
  0
VERTEX
  8
0
 62
7
 10
6.42397314
 20
6.15358496
  0
VERTEX
  8
0
 62
7
 10
6.38450000
 20
6.18325000
  0
VERTEX
  8
0
 62
7
 10
6.34249561
 20
6.20979785
  0
VERTEX
  8
0
 62
7
 10
6.29821484
 20
6.23311719
  0
VERTEX
  8
0
 62
7
 10
6.25191260
 20
6.25309668
  0
VERTEX
  8
0
 62
7
 10
6.20384375
 20
6.26962500
  0
VERTEX
  8
0
 62
7
 10
6.15426318
 20
6.28259082
  0
VERTEX
  8
0
 62
7
 10
6.10342578
 20
6.29188281
  0
VERTEX
  8
0
 62
7
 10
6.05158643
 20
6.29738965
  0
VERTEX
  8
0
 62
7
 10
5.99900000
 20
6.29900000
  0
VERTEX
  8
0
 62
7
 10
5.95128711
 20
6.29700781
  0
VERTEX
  8
0
 62
7
 10
5.90717188
 20
6.29225000
  0
VERTEX
  8
0
 62
7
 10
5.86668945
 20
6.28542969
  0
VERTEX
  8
0
 62
7
 10
5.82987500
 20
6.27725000
  0
VERTEX
  8
0
 62
7
 10
5.79676367
 20
6.26841406
  0
VERTEX
  8
0
 62
7
 10
5.76739063
 20
6.25962500
  0
VERTEX
  8
0
 62
7
 10
5.74179102
 20
6.25158594
  0
VERTEX
  8
0
 62
7
 10
5.72000000
 20
6.24500000
  0
VERTEX
  8
0
 62
7
 10
5.75400781
 20
6.18909570
  0
VERTEX
  8
0
 62
7
 10
5.78375000
 20
6.13714063
  0
VERTEX
  8
0
 62
7
 10
5.80992969
 20
6.08727148
  0
VERTEX
  8
0
 62
7
 10
5.83325000
 20
6.03762500
  0
VERTEX
  8
0
 62
7
 10
5.85441406
 20
5.98633789
  0
VERTEX
  8
0
 62
7
 10
5.87412500
 20
5.93154688
  0
VERTEX
  8
0
 62
7
 10
5.89308594
 20
5.87138867
  0
VERTEX
  8
0
 62
7
 10
5.91200000
 20
5.80400000
  0
VERTEX
  8
0
 62
7
 10
5.92343018
 20
5.76496338
  0
VERTEX
  8
0
 62
7
 10
5.93669141
 20
5.72744141
  0
VERTEX
  8
0
 62
7
 10
5.95173975
 20
5.69156592
  0
VERTEX
  8
0
 62
7
 10
5.96853125
 20
5.65746875
  0
VERTEX
  8
0
 62
7
 10
5.98702197
 20
5.62528174
  0
VERTEX
  8
0
 62
7
 10
6.00716797
 20
5.59513672
  0
VERTEX
  8
0
 62
7
 10
6.02892529
 20
5.56716553
  0
VERTEX
  8
0
 62
7
 10
6.05225000
 20
5.54150000
  0
VERTEX
  8
0
 62
7
 10
6.07709814
 20
5.51827197
  0
VERTEX
  8
0
 62
7
 10
6.10342578
 20
5.49761328
  0
VERTEX
  8
0
 62
7
 10
6.13118896
 20
5.47965576
  0
VERTEX
  8
0
 62
7
 10
6.16034375
 20
5.46453125
  0
VERTEX
  8
0
 62
7
 10
6.19084619
 20
5.45237158
  0
VERTEX
  8
0
 62
7
 10
6.22265234
 20
5.44330859
  0
VERTEX
  8
0
 62
7
 10
6.25571826
 20
5.43747412
  0
VERTEX
  8
0
 62
7
 10
6.29000000
 20
5.43500000
  0
VERTEX
  8
0
 62
7
 10
6.31817773
 20
5.43517578
  0
VERTEX
  8
0
 62
7
 10
6.35060938
 20
5.43659375
  0
VERTEX
  8
0
 62
7
 10
6.38564258
 20
5.43833984
  0
VERTEX
  8
0
 62
7
 10
6.42162500
 20
5.43950000
  0
VERTEX
  8
0
 62
7
 10
6.45690430
 20
5.43916016
  0
VERTEX
  8
0
 62
7
 10
6.48982813
 20
5.43640625
  0
VERTEX
  8
0
 62
7
 10
6.51874414
 20
5.43032422
  0
VERTEX
  8
0
 62
7
 10
6.54200000
 20
5.42000000
  0
VERTEX
  8
0
 62
7
 10
6.42037500
 20
5.27925000
  0
VERTEX
  8
0
 62
7
 10
6.29800000
 20
5.14600000
  0
VERTEX
  8
0
 62
7
 10
6.26732422
 20
5.11441016
  0
VERTEX
  8
0
 62
7
 10
6.23128125
 20
5.07834375
  0
VERTEX
  8
0
 62
7
 10
6.19284766
 20
5.04035547
  0
VERTEX
  8
0
 62
7
 10
6.15500000
 20
5.00300000
  0
VERTEX
  8
0
 62
7
 10
6.12071484
 20
4.96883203
  0
VERTEX
  8
0
 62
7
 10
6.09296875
 20
4.94040625
  0
VERTEX
  8
0
 62
7
 10
6.07473828
 20
4.92027734
  0
VERTEX
  8
0
 62
7
 10
6.06900000
 20
4.91100000
  0
VERTEX
  8
0
 62
7
 10
6.04100000
 20
4.93100000
  0
VERTEX
  8
0
 62
7
 10
6.07139063
 20
4.96850000
  0
VERTEX
  8
0
 62
7
 10
6.10262500
 20
5.01275000
  0
VERTEX
  8
0
 62
7
 10
6.13254688
 20
5.05812500
  0
VERTEX
  8
0
 62
7
 10
6.15900000
 20
5.09900000
  0
VERTEX
  8
0
 62
7
 10
6.19620313
 20
5.15492188
  0
VERTEX
  8
0
 62
7
 10
6.24587500
 20
5.23062500
  0
VERTEX
  8
0
 62
7
 10
6.29385938
 20
5.30726563
  0
VERTEX
  8
0
 62
7
 10
6.32600000
 20
5.36600000
  0
VERTEX
  8
0
 62
7
 10
6.31421875
 20
5.37225977
  0
VERTEX
  8
0
 62
7
 10
6.30150000
 20
5.37632813
  0
VERTEX
  8
0
 62
7
 10
6.28803125
 20
5.37863867
  0
VERTEX
  8
0
 62
7
 10
6.27400000
 20
5.37962500
  0
VERTEX
  8
0
 62
7
 10
6.25959375
 20
5.37972070
  0
VERTEX
  8
0
 62
7
 10
6.24500000
 20
5.37935938
  0
VERTEX
  8
0
 62
7
 10
6.23040625
 20
5.37897461
  0
VERTEX
  8
0
 62
7
 10
6.21600000
 20
5.37900000
  0
VERTEX
  8
0
 62
7
 10
6.18920313
 20
5.32923438
  0
VERTEX
  8
0
 62
7
 10
6.14862500
 20
5.26512500
  0
VERTEX
  8
0
 62
7
 10
6.10673438
 20
5.20195313
  0
VERTEX
  8
0
 62
7
 10
6.07600000
 20
5.15500000
  0
VERTEX
  8
0
 62
7
 10
6.03170313
 20
5.09368750
  0
VERTEX
  8
0
 62
7
 10
5.96462500
 20
5.01325000
  0
VERTEX
  8
0
 62
7
 10
5.89023438
 20
4.92943750
  0
VERTEX
  8
0
 62
7
 10
5.82400000
 20
4.85800000
  0
VERTEX
  8
0
 62
7
 10
5.85700000
 20
4.94350000
  0
VERTEX
  8
0
 62
7
 10
5.88400000
 20
5.03200000
  0
VERTEX
  8
0
 62
7
 10
5.90300000
 20
5.11387500
  0
VERTEX
  8
0
 62
7
 10
5.91750000
 20
5.19725000
  0
VERTEX
  8
0
 62
7
 10
5.92675000
 20
5.28175000
  0
VERTEX
  8
0
 62
7
 10
5.93000000
 20
5.36700000
  0
VERTEX
  8
0
 62
7
 10
5.92728125
 20
5.44200000
  0
VERTEX
  8
0
 62
7
 10
5.91875000
 20
5.51700000
  0
VERTEX
  8
0
 62
7
 10
5.90384375
 20
5.59200000
  0
VERTEX
  8
0
 62
7
 10
5.88200000
 20
5.66700000
  0
VERTEX
  8
0
 62
7
 10
5.86965845
 20
5.70088013
  0
VERTEX
  8
0
 62
7
 10
5.85554883
 20
5.73521289
  0
VERTEX
  8
0
 62
7
 10
5.83973120
 20
5.76972437
  0
VERTEX
  8
0
 62
7
 10
5.82226563
 20
5.80414063
  0
VERTEX
  8
0
 62
7
 10
5.80321216
 20
5.83818774
  0
VERTEX
  8
0
 62
7
 10
5.78263086
 20
5.87159180
  0
VERTEX
  8
0
 62
7
 10
5.76058179
 20
5.90407886
  0
VERTEX
  8
0
 62
7
 10
5.73712500
 20
5.93537500
  0
VERTEX
  8
0
 62
7
 10
5.71232056
 20
5.96520630
  0
VERTEX
  8
0
 62
7
 10
5.68622852
 20
5.99329883
  0
VERTEX
  8
0
 62
7
 10
5.65890894
 20
6.01937866
  0
VERTEX
  8
0
 62
7
 10
5.63042188
 20
6.04317188
  0
VERTEX
  8
0
 62
7
 10
5.60082739
 20
6.06440454
  0
VERTEX
  8
0
 62
7
 10
5.57018555
 20
6.08280273
  0
VERTEX
  8
0
 62
7
 10
5.53855640
 20
6.09809253
  0
VERTEX
  8
0
 62
7
 10
5.50600000
 20
6.11000000
  0
VERTEX
  8
0
 62
7
 10
5.47098438
 20
6.11950000
  0
VERTEX
  8
0
 62
7
 10
5.43512500
 20
6.12675000
  0
VERTEX
  8
0
 62
7
 10
5.39870313
 20
6.13137500
  0
VERTEX
  8
0
 62
7
 10
5.36200000
 20
6.13300000
  0
VERTEX
  8
0
 62
7
 10
5.33281250
 20
6.13189844
  0
VERTEX
  8
0
 62
7
 10
5.30381250
 20
6.12850000
  0
VERTEX
  8
0
 62
7
 10
5.27509375
 20
6.12266406
  0
VERTEX
  8
0
 62
7
 10
5.24675000
 20
6.11425000
  0
VERTEX
  8
0
 62
7
 10
5.21887500
 20
6.10311719
  0
VERTEX
  8
0
 62
7
 10
5.19156250
 20
6.08912500
  0
VERTEX
  8
0
 62
7
 10
5.16490625
 20
6.07213281
  0
VERTEX
  8
0
 62
7
 10
5.13900000
 20
6.05200000
  0
VERTEX
  8
0
 62
7
 10
5.11103320
 20
6.02552734
  0
VERTEX
  8
0
 62
7
 10
5.08645313
 20
5.99659375
  0
VERTEX
  8
0
 62
7
 10
5.06536523
 20
5.96555078
  0
VERTEX
  8
0
 62
7
 10
5.04787500
 20
5.93275000
  0
VERTEX
  8
0
 62
7
 10
5.03408789
 20
5.89854297
  0
VERTEX
  8
0
 62
7
 10
5.02410938
 20
5.86328125
  0
VERTEX
  8
0
 62
7
 10
5.01804492
 20
5.82731641
  0
VERTEX
  8
0
 62
7
 10
5.01600000
 20
5.79100000
  0
VERTEX
  8
0
 62
7
 10
5.01779688
 20
5.75693164
  0
VERTEX
  8
0
 62
7
 10
5.02325000
 20
5.72320313
  0
VERTEX
  8
0
 62
7
 10
5.03245313
 20
5.69015430
  0
VERTEX
  8
0
 62
7
 10
5.04550000
 20
5.65812500
  0
VERTEX
  8
0
 62
7
 10
5.06248438
 20
5.62745508
  0
VERTEX
  8
0
 62
7
 10
5.08350000
 20
5.59848438
  0
VERTEX
  8
0
 62
7
 10
5.10864063
 20
5.57155273
  0
VERTEX
  8
0
 62
7
 10
5.13800000
 20
5.54700000
  0
VERTEX
  8
0
 62
7
 10
5.18112500
 20
5.52017188
  0
VERTEX
  8
0
 62
7
 10
5.22650000
 20
5.50112500
  0
VERTEX
  8
0
 62
7
 10
5.27412500
 20
5.48976563
  0
VERTEX
  8
0
 62
7
 10
5.32400000
 20
5.48600000
  0
VERTEX
  8
0
 62
7
 10
5.34669531
 20
5.48686133
  0
VERTEX
  8
0
 62
7
 10
5.36887500
 20
5.48951563
  0
VERTEX
  8
0
 62
7
 10
5.39030469
 20
5.49406836
  0
VERTEX
  8
0
 62
7
 10
5.41075000
 20
5.50062500
  0
VERTEX
  8
0
 62
7
 10
5.42997656
 20
5.50929102
  0
VERTEX
  8
0
 62
7
 10
5.44775000
 20
5.52017188
  0
VERTEX
  8
0
 62
7
 10
5.46383594
 20
5.53337305
  0
VERTEX
  8
0
 62
7
 10
5.47800000
 20
5.54900000
  0
VERTEX
  8
0
 62
7
 10
5.49496875
 20
5.57545313
  0
VERTEX
  8
0
 62
7
 10
5.50650000
 20
5.60462500
  0
VERTEX
  8
0
 62
7
 10
5.51203125
 20
5.63548438
  0
VERTEX
  8
0
 62
7
 10
5.51100000
 20
5.66700000
  0
VERTEX
  8
0
 62
7
 10
5.50450000
 20
5.69540625
  0
VERTEX
  8
0
 62
7
 10
5.49275000
 20
5.72175000
  0
VERTEX
  8
0
 62
7
 10
5.47612500
 20
5.74546875
  0
VERTEX
  8
0
 62
7
 10
5.45500000
 20
5.76600000
  0
VERTEX
  8
0
 62
7
 10
5.45558398
 20
5.74845898
  0
VERTEX
  8
0
 62
7
 10
5.45367188
 20
5.73123438
  0
VERTEX
  8
0
 62
7
 10
5.44939258
 20
5.71454883
  0
VERTEX
  8
0
 62
7
 10
5.44287500
 20
5.69862500
  0
VERTEX
  8
0
 62
7
 10
5.43424805
 20
5.68368555
  0
VERTEX
  8
0
 62
7
 10
5.42364063
 20
5.66995313
  0
VERTEX
  8
0
 62
7
 10
5.41118164
 20
5.65765039
  0
VERTEX
  8
0
 62
7
 10
5.39700000
 20
5.64700000
  0
VERTEX
  8
0
 62
7
 10
5.37611328
 20
5.63612109
  0
VERTEX
  8
0
 62
7
 10
5.35421875
 20
5.62953125
  0
VERTEX
  8
0
 62
7
 10
5.33171484
 20
5.62692578
  0
VERTEX
  8
0
 62
7
 10
5.30900000
 20
5.62800000
  0
VERTEX
  8
0
 62
7
 10
5.28647266
 20
5.63244922
  0
VERTEX
  8
0
 62
7
 10
5.26453125
 20
5.63996875
  0
VERTEX
  8
0
 62
7
 10
5.24357422
 20
5.65025391
  0
VERTEX
  8
0
 62
7
 10
5.22400000
 20
5.66300000
  0
VERTEX
  8
0
 62
7
 10
5.20861719
 20
5.67567773
  0
VERTEX
  8
0
 62
7
 10
5.19543750
 20
5.68960938
  0
VERTEX
  8
0
 62
7
 10
5.18441406
 20
5.70464258
  0
VERTEX
  8
0
 62
7
 10
5.17550000
 20
5.72062500
  0
VERTEX
  8
0
 62
7
 10
5.16864844
 20
5.73740430
  0
VERTEX
  8
0
 62
7
 10
5.16381250
 20
5.75482813
  0
VERTEX
  8
0
 62
7
 10
5.16094531
 20
5.77274414
  0
VERTEX
  8
0
 62
7
 10
5.16000000
 20
5.79100000
  0
VERTEX
  8
0
 62
7
 10
5.16116406
 20
5.81139258
  0
VERTEX
  8
0
 62
7
 10
5.16462500
 20
5.83189063
  0
VERTEX
  8
0
 62
7
 10
5.17033594
 20
5.85222461
  0
VERTEX
  8
0
 62
7
 10
5.17825000
 20
5.87212500
  0
VERTEX
  8
0
 62
7
 10
5.18832031
 20
5.89132227
  0
VERTEX
  8
0
 62
7
 10
5.20050000
 20
5.90954688
  0
VERTEX
  8
0
 62
7
 10
5.21474219
 20
5.92652930
  0
VERTEX
  8
0
 62
7
 10
5.23100000
 20
5.94200000
  0
VERTEX
  8
0
 62
7
 10
5.26215625
 20
5.96368750
  0
VERTEX
  8
0
 62
7
 10
5.29425000
 20
5.97825000
  0
VERTEX
  8
0
 62
7
 10
5.32746875
 20
5.98643750
  0
VERTEX
  8
0
 62
7
 10
5.36200000
 20
5.98900000
  0
VERTEX
  8
0
 62
7
 10
5.38581250
 20
5.98789063
  0
VERTEX
  8
0
 62
7
 10
5.41075000
 20
5.98462500
  0
VERTEX
  8
0
 62
7
 10
5.43681250
 20
5.97929688
  0
VERTEX
  8
0
 62
7
 10
5.46400000
 20
5.97200000
  0
VERTEX
  8
0
 62
7
 10
5.48433862
 20
5.96443262
  0
VERTEX
  8
0
 62
7
 10
5.50478711
 20
5.95421094
  0
VERTEX
  8
0
 62
7
 10
5.52524438
 20
5.94149316
  0
VERTEX
  8
0
 62
7
 10
5.54560938
 20
5.92643750
  0
VERTEX
  8
0
 62
7
 10
5.56578101
 20
5.90920215
  0
VERTEX
  8
0
 62
7
 10
5.58565820
 20
5.88994531
  0
VERTEX
  8
0
 62
7
 10
5.60513989
 20
5.86882520
  0
VERTEX
  8
0
 62
7
 10
5.62412500
 20
5.84600000
  0
VERTEX
  8
0
 62
7
 10
5.64251245
 20
5.82162793
  0
VERTEX
  8
0
 62
7
 10
5.66020117
 20
5.79586719
  0
VERTEX
  8
0
 62
7
 10
5.67709009
 20
5.76887598
  0
VERTEX
  8
0
 62
7
 10
5.69307813
 20
5.74081250
  0
VERTEX
  8
0
 62
7
 10
5.70806421
 20
5.71183496
  0
VERTEX
  8
0
 62
7
 10
5.72194727
 20
5.68210156
  0
VERTEX
  8
0
 62
7
 10
5.73462622
 20
5.65177051
  0
VERTEX
  8
0
 62
7
 10
5.74600000
 20
5.62100000
  0
VERTEX
  8
0
 62
7
 10
5.76406250
 20
5.55839063
  0
VERTEX
  8
0
 62
7
 10
5.77650000
 20
5.49512500
  0
VERTEX
  8
0
 62
7
 10
5.78368750
 20
5.43129688
  0
VERTEX
  8
0
 62
7
 10
5.78600000
 20
5.36700000
  0
VERTEX
  8
0
 62
7
 10
5.78309375
 20
5.29257813
  0
VERTEX
  8
0
 62
7
 10
5.77475000
 20
5.21787500
  0
VERTEX
  8
0
 62
7
 10
5.76153125
 20
5.14298438
  0
VERTEX
  8
0
 62
7
 10
5.74400000
 20
5.06800000
  0
VERTEX
  8
0
 62
7
 10
5.72918750
 20
5.01589063
  0
VERTEX
  8
0
 62
7
 10
5.71175000
 20
4.96462500
  0
VERTEX
  8
0
 62
7
 10
5.69168750
 20
4.91429688
  0
VERTEX
  8
0
 62
7
 10
5.66900000
 20
4.86500000
  0
VERTEX
  8
0
 62
7
 10
5.62400195
 20
4.80230078
  0
VERTEX
  8
0
 62
7
 10
5.57526563
 20
4.74328125
  0
VERTEX
  8
0
 62
7
 10
5.52280273
 20
4.68805859
  0
VERTEX
  8
0
 62
7
 10
5.46662500
 20
4.63675000
  0
VERTEX
  8
0
 62
7
 10
5.40674414
 20
4.58947266
  0
VERTEX
  8
0
 62
7
 10
5.34317188
 20
4.54634375
  0
VERTEX
  8
0
 62
7
 10
5.27591992
 20
4.50748047
  0
VERTEX
  8
0
 62
7
 10
5.20500000
 20
4.47300000
  0
VERTEX
  8
0
 62
7
 10
5.10453125
 20
4.42940625
  0
VERTEX
  8
0
 62
7
 10
5.00350000
 20
4.38375000
  0
VERTEX
  8
0
 62
7
 10
4.90771875
 20
4.33771875
  0
VERTEX
  8
0
 62
7
 10
4.82300000
 20
4.29300000
  0
VERTEX
  8
0
 62
7
 10
4.73114063
 20
4.23535938
  0
VERTEX
  8
0
 62
7
 10
4.65512500
 20
4.17837500
  0
VERTEX
  8
0
 62
7
 10
4.59054688
 20
4.12270313
  0
VERTEX
  8
0
 62
7
 10
4.53300000
 20
4.06900000
  0
VERTEX
  8
0
 62
7
 10
4.48331250
 20
4.02259375
  0
VERTEX
  8
0
 62
7
 10
4.43250000
 20
3.97825000
  0
VERTEX
  8
0
 62
7
 10
4.37718750
 20
3.93653125
  0
VERTEX
  8
0
 62
7
 10
4.31400000
 20
3.89800000
  0
VERTEX
  8
0
 62
7
 10
4.34982813
 20
3.95328125
  0
VERTEX
  8
0
 62
7
 10
4.38837500
 20
4.00650000
  0
VERTEX
  8
0
 62
7
 10
4.42973438
 20
4.05746875
  0
VERTEX
  8
0
 62
7
 10
4.47400000
 20
4.10600000
  0
VERTEX
  8
0
 62
7
 10
4.51635938
 20
4.14835938
  0
VERTEX
  8
0
 62
7
 10
4.56087500
 20
4.18837500
  0
VERTEX
  8
0
 62
7
 10
4.60745313
 20
4.22595313
  0
VERTEX
  8
0
 62
7
 10
4.65600000
 20
4.26100000
  0
VERTEX
  8
0
 62
7
 10
4.62500000
 20
4.26100000
  0
VERTEX
  8
0
 62
7
 10
4.57368555
 20
4.25706250
  0
VERTEX
  8
0
 62
7
 10
4.52460938
 20
4.24618750
  0
VERTEX
  8
0
 62
7
 10
4.47757227
 20
4.22978125
  0
VERTEX
  8
0
 62
7
 10
4.43237500
 20
4.20925000
  0
VERTEX
  8
0
 62
7
 10
4.38881836
 20
4.18600000
  0
VERTEX
  8
0
 62
7
 10
4.34670313
 20
4.16143750
  0
VERTEX
  8
0
 62
7
 10
4.30583008
 20
4.13696875
  0
VERTEX
  8
0
 62
7
 10
4.26600000
 20
4.11400000
  0
VERTEX
  8
0
 62
7
 10
4.18340771
 20
4.06969727
  0
VERTEX
  8
0
 62
7
 10
4.09740234
 20
4.02540625
  0
VERTEX
  8
0
 62
7
 10
4.00820361
 20
3.98130273
  0
VERTEX
  8
0
 62
7
 10
3.91603125
 20
3.93756250
  0
VERTEX
  8
0
 62
7
 10
3.82110498
 20
3.89436133
  0
VERTEX
  8
0
 62
7
 10
3.72364453
 20
3.85187500
  0
VERTEX
  8
0
 62
7
 10
3.62386963
 20
3.81027930
  0
VERTEX
  8
0
 62
7
 10
3.52200000
 20
3.76975000
  0
VERTEX
  8
0
 62
7
 10
3.41825537
 20
3.73046289
  0
VERTEX
  8
0
 62
7
 10
3.31285547
 20
3.69259375
  0
VERTEX
  8
0
 62
7
 10
3.20602002
 20
3.65631836
  0
VERTEX
  8
0
 62
7
 10
3.09796875
 20
3.62181250
  0
VERTEX
  8
0
 62
7
 10
2.98892139
 20
3.58925195
  0
VERTEX
  8
0
 62
7
 10
2.87909766
 20
3.55881250
  0
VERTEX
  8
0
 62
7
 10
2.76871729
 20
3.53066992
  0
VERTEX
  8
0
 62
7
 10
2.65800000
 20
3.50500000
  0
VERTEX
  8
0
 62
7
 10
2.49862500
 20
3.47300000
  0
VERTEX
  8
0
 62
7
 10
2.34000000
 20
3.44700000
  0
VERTEX
  8
0
 62
7
 10
2.36332813
 20
3.47615625
  0
VERTEX
  8
0
 62
7
 10
2.38862500
 20
3.49800000
  0
VERTEX
  8
0
 62
7
 10
2.41860938
 20
3.51534375
  0
VERTEX
  8
0
 62
7
 10
2.45600000
 20
3.53100000
  0
VERTEX
  8
0
 62
7
 10
2.51867188
 20
3.55278125
  0
VERTEX
  8
0
 62
7
 10
2.59212500
 20
3.57625000
  0
VERTEX
  8
0
 62
7
 10
2.66426563
 20
3.59709375
  0
VERTEX
  8
0
 62
7
 10
2.72300000
 20
3.61100000
  0
VERTEX
  8
0
 62
7
 10
2.69193555
 20
3.61778516
  0
VERTEX
  8
0
 62
7
 10
2.65354688
 20
3.62571875
  0
VERTEX
  8
0
 62
7
 10
2.61016602
 20
3.63416797
  0
VERTEX
  8
0
 62
7
 10
2.56412500
 20
3.64250000
  0
VERTEX
  8
0
 62
7
 10
2.51775586
 20
3.65008203
  0
VERTEX
  8
0
 62
7
 10
2.47339063
 20
3.65628125
  0
VERTEX
  8
0
 62
7
 10
2.43336133
 20
3.66046484
  0
VERTEX
  8
0
 62
7
 10
2.40000000
 20
3.66200000
  0
VERTEX
  8
0
 62
7
 10
2.34118555
 20
3.66037109
  0
VERTEX
  8
0
 62
7
 10
2.28329688
 20
3.65553125
  0
VERTEX
  8
0
 62
7
 10
2.22641602
 20
3.64755078
  0
VERTEX
  8
0
 62
7
 10
2.17062500
 20
3.63650000
  0
VERTEX
  8
0
 62
7
 10
2.11600586
 20
3.62244922
  0
VERTEX
  8
0
 62
7
 10
2.06264063
 20
3.60546875
  0
VERTEX
  8
0
 62
7
 10
2.01061133
 20
3.58562891
  0
VERTEX
  8
0
 62
7
 10
1.96000000
 20
3.56300000
  0
VERTEX
  8
0
 62
7
 10
1.87800000
 20
3.53600000
  0
VERTEX
  8
0
 62
7
 10
1.74229688
 20
3.49610938
  0
VERTEX
  8
0
 62
7
 10
1.60987500
 20
3.46137500
  0
VERTEX
  8
0
 62
7
 10
1.47651563
 20
3.43095313
  0
VERTEX
  8
0
 62
7
 10
1.33800000
 20
3.40400000
  0
VERTEX
  8
0
 62
7
 10
1.22982813
 20
3.38592188
  0
VERTEX
  8
0
 62
7
 10
1.12137500
 20
3.37037500
  0
VERTEX
  8
0
 62
7
 10
1.01273438
 20
3.35689063
  0
VERTEX
  8
0
 62
7
 10
.90400000
 20
3.34500000
  0
VERTEX
  8
0
 62
7
 10
.67918750
 20
3.32534375
  0
VERTEX
  8
0
 62
7
 10
.45625000
 20
3.31300000
  0
VERTEX
  8
0
 62
7
 10
.23293750
 20
3.30815625
  0
VERTEX
  8
0
 62
7
 10
.00700000
 20
3.31100000
  0
SEQEND
  0
ENDSEC
  0
EOF
